Trash Talk - Pushed Aside Chords

 
No chord
Standard guitar tuning:
E
A
D
G
B
E
No capo
play this fast as FUCK!
|------------------|--------------------|------------------|--------------------|
|------------------|--------------------|------------------|--------------------|
|555333555333555666|55533355533335553333|555333555333555666|55533355533335553333|
|555333555333555666|55533355533335553333|555333555333555666|55533355533335553333|
|333111333111333444|33311133311113331111|333111333111333444|33311133311113331111|
|------------------|--------------------|------------------|--------------------|
|-----------------------------------------------------------------------|
|-----------------------------------------------------------------------|
|--------------------|--------------------------------------------------|
|5xxxxxxxx-3xxxxxxxx-|0-0-000-0-0-000-----------------------------------|x2
|5xxxxxxxx-3xxxxxxxx-|0-0-000-0-0-000-----------------------------------|
|5xxxxxxxx-3xxxxxxxx-|0-0-000-0-0-000-(figure out palm muting here)-----| and then after that part, you play the same thing (so technically play this section four times ) except you strum the 5's and the 3's a few times and play the half(o's) the same way. if you listen to it youll understand.
then this
|----------------|----------------|----------------|----------------|
|----------------|----------------|----------------|----------------|
|----------------|----------------|----------------|----------------|
|0~--------------|----------------|0~--------------|----------------|
|0~--------------|----------------|0~--------------|----------------|
|0~--------------|----------------|0~--------------|----------------|
then the intro riff but slower i guess:
|-----------|---------------|
|-----------|---------------|
|55355535556-444|5535553555-|
|55355535556-444|55355535554|
|33133313334-444|33133313334|
|-----------|--------------4|
errrryyythannnggg stops!
then everything jumps back in:
|---------------|---------------|---------------|-------------|
|---------------|---------------|---------------|-------------|
|55355535556-666|55355535553-333|55355535556-666|55355535553--|
|55355535556-666|55355535553-333|55355535556-666|553555355534-|
|33133313334-444|33133313331-111|33133313334-444|331333133314-|
|---------------|---------------|---------------|-----------4-|