Trevor Hall - All I Ever Know Chords

 
No chord
Standard guitar tuning:
E
A
D
G
B
E
No capo
e|-------------------------------------------0------0-|
B|--5--7--8-----5--7--3-----5--7--8--------12-----10--|
G|--0--0--0-----0--0--0-----0--0--0-------0------0----|
D|----------------------------------------------------|
A|--3--5--7-----3--5--2-----3--5--7-----10------9-----|
E|-----------0-----------0-----------0----------------|
e|----0----0----0----0-|
B|--5----7----8---12---|
G|--0----0----0---0----|
D|---------------------|
A|--3----5----7---10---|
E|---------------------|
e|--X---X---X---3--------|
B|--3---5---7---5--------|
G|--5---7---9---5--------|
D|--5---7---9---4--------|
A|--3---5---6---3--------|
E|--3---5---7---3--------|