Turbonegro - Wipe It Till It Bleeds Chords

 
No chord
Standard guitar tuning:
E
A
D
G
B
E
No capo
By: Turbonegro
Transcribed: Ville Von Margera
|----------------------------------------------|
|---10-----10------------8------10-------------|
|---9---9--9---9---------7--7---9---9----------|
|---7---9--7---9---------5--7---7---9----------|
|---7---7--7---7---------5--5---7---7----------|
|-0-----------------0--------------------------|

Verse

|-----------------------------|
|-----------------------------|
|-----------------------------|
|-10-9-7-9-10--12-10-9-10-12--|
|-10-9-7-9-10--12-10-9-10-12--|
|-8--7-5-7-8---10-8--7-8--10--|
|--------------------||--------------|
|---10-----10--------||--------------|
|---9---9--9---9-----||--------------|
|---7---9--7---9-----||-7-----9------|
|---7---7--7---7-----||-7-----9------|
|-0------------------||-5-----7------|
I II See the young lord....
|-2----4--||--------|
|-2----5--||--------|
|-2----6--||-4----2-|
|-4----6--||-4----2-|
|-4----4--||-2----0-|
|-2-------||--------|
F#m c#m (subcultural greed..) turbonegro must be destroyd... it's the desteny