Tyler Ward - Tonight Tonight - Hot Chelle Rae Chords

 
         
         
         
         
         
1
3
4
2
1
1
5 fr
         
         
         
         
         
X
4
3
1
2
1
3 fr
         
         
         
         
         
X
X
1
2
4
3
         
         
         
         
         
X
X
3
2
1
1
8 fr
         
         
         
         
         
X
1
3
3
3
1
10 fr
         
         
         
         
         
4
3
1
1
1
X

10 fr
         
         
         
         
         
3
2
1
1
1
4
No chord
Standard guitar tuning:
E
A
D
G
B
E
Capo on 2 fret
F 133211 (bar) Throughout the whole song.
e:|------------------------|
A:|------------------------|
G:|------------------------|
D:|-----2--3---5-----------|
A:|--3------------2--3-----|
E:|------------------------|
e:|------------------------|
A:|------------------------|
G:|------------------------|
D:|-----4--5---7-----------|
A:|--5------------4--5-----|
E:|------------------------|