Unwritten Law - Cpk Chords

 
No chord
Standard guitar tuning:
E
A
D
G
B
E
No capo
E-|----------------------------------------------------------------------
B-|----------------------------------------------------------------------
G-|-9-----9------9---6-------9-------------------------------------------
D-|-9-7-9-9-7-9--9-9-6-6-7-9-9-7-9---------------------------------------
A-|-7-7-9-7-7-9--7-9-4-6-7-9-7-7-9---------------------------------------
E-|---5-7---5-7----7---4-5-7---5-7---------------------------------------
Here's the verse
E-|----------------------------------------------------------------------
B-|----------------------------------------------------------------------
G-|-9---6------------9---6-------9---------------------------------------
D-|-9-9-6-6-7-9-7-9--9-9-6-6-7-9-9-7-9-----------------------------------
A-|-7-9-4-6-7-9-7-9--7-9-4-6-7-9-7-7-9-----------------------------------
E-|---7---4-5-7-5-7----7---4-5-7---5-7-----------------------------------
And the chorus
E-|----------------------------------------------------------------------
B-|----------------------------------------------------------------------
G-|-----9--------9-------------------------------------------------------
D-|-6-7-9-6-7-9--9-7-9---------------------------------------------------
A-|-6-7-7-6-7-9--7-7-9---------------------------------------------------
E-|-4-5---4-5-7----5-7---------------------------------------------------
sorry for the quick job at this you might wanna listen to the cd or tape as you play it to find the rhythm write with corrections please