The White Stripes - Seven Nation Army Chords

Main strumming pattern
 
         
         
         
         
2
3
1
4 fr
         
         
         
         
X
4
3
1
2
1
7 fr
         
         
         
         
X
1
4
4
4
X
2 fr
         
         
         
         
X
X
1
2
4
3
4 fr
         
         
         
         
4
3
1
2
1
7 fr
         
         
         
         
X
1
3
3
3
1

9 fr
         
         
         
         
4
3
1
1
1
X
9 fr
         
         
         
         
3
2
1
1
1
4
12 fr
         
         
         
         
1
3
4
2
1
1
4 fr
         
         
         
         
X
         
         
         
         
3
2
4
3 fr
         
         
         
         
1
3
4
2
1
1
         
         
         
         
2
1
3
4
3 fr
         
         
         
         
X
X
3
2
1
1
5 fr
         
         
         
         
X
X
1
3
4
3
7 fr
         
         
         
         
X
4
3
1
2
1

10 fr
         
         
         
         
X
1
2
3
4
X
10 fr
         
         
         
         
X
1
3
3
3
1
12 fr
         
         
         
         
3
2
1
1
1
4
         
         
         
         
X
X
1
3
2
2 fr
         
         
         
         
X
4
3
1
2
1
5 fr
         
         
         
         
X
1
2
3
4
1
5 fr
         
         
         
         
X
1
4
4
4
X
7 fr
         
         
         
         
4
3
1
1
1
X
7 fr
         
         
         
         
3
2
1
1
1
4

10 fr
         
         
         
         
1
3
4
2
1
1
12 fr
         
         
         
         
X
X
1
3
4
3
5 fr
         
         
         
         
X
X
         
         
         
         
X
3
2
1
3 fr
         
         
         
         
X
1
2
3
4
1
8 fr
         
         
         
         
1
3
4
2
1
1
3 fr
         
         
         
         
X
1
X
3
4
1
5 fr
         
         
         
         
3
2
1
1
1
4
10 fr
         
         
         
         
X
X
1
3
4
3

12 fr
         
         
         
         
X
4
3
1
2
1
3 fr
         
         
         
         
X
7 fr
         
         
         
         
1
3
4
2
1
1
         
         
         
         
X
2
1
X
3
         
         
         
         
X
1
4
4
4
X
         
         
         
         
X
1
3
3
3
1
4 fr
         
         
         
         
4
3
1
1
1
X
4 fr
         
         
         
         
3
2
1
1
1
4

9 fr
         
         
         
         
X
X
1
3
4
3
11 fr
         
         
         
         
X
4
3
1
2
1
         
         
         
         
X
1
2
3
5 fr
         
         
         
         
1
3
4
2
1
1
2 fr
         
         
         
         
X
1
1
1
4
         
         
         
         
X
X
1
2
2 fr
         
         
         
         
3
2
1
1
1
4
7 fr
         
         
         
         
X
X
1
3
4
3

9 fr
         
         
         
         
X
4
3
1
2
1
12 fr
         
         
         
         
X
1
3
3
3
1
No chord
Standard guitar tuning:
E
A
D
G
B
E
No capo

Verse riff

   E  E G E D C B    E  E G E D C B    E  E G E D C B    E  E G E D C B
G|----------------------------------------------------------------------|
D|------5-----------------5-----------------5-----------------5---------|(x10)
A|-7--7---7-5-3-2--/-7--7---7-5-3-2--/-7--7---7-5-3-2--/-7--7---7-5-3-2-|
E|-0-----------------0-----------------0-----------------0--------------|
Pre/Post - Chorus Riff: (Gtr)

G G G G G G G G A A A A A A A A

e|------------------0-0-0-0-0-0-0-0-| B|------------------2-2-2-2-2-2-2-2-| G|-4-4-4-4-4-4-4-4--2-2-2-2-2-2-2-2-| D|-5-5-5-5-5-5-5-5--2-2-2-2-2-2-2-2-| A|-5-5-5-5-5-5-5-5--0-0-0-0-0-0-0-0-| E|-3-3-3-3-3-3-3-3------------------|
 Bass
G|----------------------------------|
D|----------------------------------|
A|------------------0-0-0-0-0-0-0-0-|
E|-3-3-3-3-3-3-3-3------------------|

Chorus riff

 G     Dis

E E G E D C B

e|-0----------------------| B|-9--9/-12-\-9-\7-\5--\4-| G|-9--9/-12-\-9-\7-\5--\4-| D|-9--9/-12-\-9-\7-\5--\4-| A|-7--7/-10-\-7-\5-\3--\2-| E|-0----------------------|
 Bass
G|----------------|
D|------5---------|
A|-7--7---7-5-3-2-|
E|-0--------------|
 G

E E G E D C D C B

e|-0----------------------------| B|-9--9/-12-\-9-\7-\5-/7-\-5-\4-| G|-9--9/-12-\-9-\7-\5-/7-\-5-\4-| D|-9--9/-12-\-9-\7-\5-/7-\-5-\4-| A|-7--7/-10-\-7-\5-\3-/5-\-3-\2-| E|-0----------------------------|
 Bass
G|--------------------|
D|------5-------------|
A|-7--7---7-5-3-5-3-2-|
E|-0------------------|

Solo

(Well that's why they call them solo's, cause your on your own"

Outro

   E
e|-----------------------------------------------------------------------------|
B|-----------------------------------------------------------------------------|
G|-9-/-------------------------------------------------------------------------|
D|-9-/-------------------------------------------------------------------------|
A|-9-/-------------------------------------------------------------------------|
E|-7-/-------------------------------------------------------------------------|
 Bass
e|-----------------------------------------------------------------------------|
B|-----------------------------------------------------------------------------|
G|-----------------------------------------------------------------------------|
D|-----------------------------------------------------------------------------|
A|-0-/-------------------------------------------------------------------------|
E|-----------------------------------------------------------------------------|
I'm gonna Efight 'em off,E G E D C B BA seven nation Earmy couldnE'tG hEolDd Cme back.B BTheir gonna rEip it off,E G E D C B BTaking their Etime ErigGht EbehDindC my back. B BAnd EI'm talkEing tGo mysEelf aDt nigCht because I Bcan't forget. E E G E D C B EBack Eand foGrth tEhrouDgh mCy mind, behind Ba cigarette.E E G E D C B

C

GAnd the message comming from my Aeyes, says leave it alone. BDon't want EtoE hGeaEr DabCout it, B BEvery single EoneEs GgoEt Da Cstory to tell.B BEveryone knoEwsE aGboEutD iCt,B BFrom the queen of EEnglEandG toE thDe hCounds of hell.B BAnd if EI catEch yGou cEommDing bacCk my way, CI'm going to seBrve it to you. E E G E D C B BAnd that aEin'tE what Gyou Ewant Dto heaCr, Bbut that's what IE'lEl GdoE. D C B

C

GAnd the feeling coming from my Abones, says find a home. EI'm going to WEitGchEitDa,C B BFar from tEhis oEperGa aEnd DforC ever more.B BI'm going to wEork the straEw, G E D C B BMake the sweat dErip EouGt EofD eCvery pour.B BAnd I'm bleediEn', and IE'm bleGedin',E EAnd I'mD bleedCing right bBefore the lord.E E G E D C B EAll the Ewords Gare goiEng to bDleed from mCe, BAnd I will think no more.E E G E D C B

C

GAnd the stains comming from my Ablood, says go back home. | / slide up | \ slide down | B hammer-on | p pull-off | ~ vibrato | + harmonic | x Mute note