Xiii.Stoleti - Mystery Ana Chords

 
No chord
Standard guitar tuning:
E
A
D
G
B
E
No capo
E||--------------------------------------------|
B||--------------------------------------------|
G||--7----7----7--7----7----7----7--5--5--5----|
D||--7----7----7--7----7----7----7--5--5--5----|
A||--5----5----5--5----5----5----5--3--3--3----|
E||--------------------------------------------|
--------------------------------------------|
--------------------------------------------|
--7----7----7--7----7----7----7--5--5--5----|
--7----7----7--7----7----7----7--5--5--5----|
--5----5----5--5----5----5----5--3--3--3----|
--------------------------------------------|
-------------------------------------------|
-------------------------------------------|
-------------------------------------------|
--5----5----5--5----8----8----8--8----8----|
--5----5----5--5----8----8----8--8----8----|
--3----3----3--3----6----6----6--6----6----|
--------------------------------------------||
--------------------------------------------||
--7----7----7--7----7----7----7--5--5--5----||
--7----7----7--7----7----7----7--5--5--5----||
--5----5----5--5----5----5----5--3--3--3----||
--------------------------------------------||