Yui - Life Accoustic Chords

 
No chord
Standard guitar tuning:
E
A
D
G
B
E
No capo

Intro1

|------------------------------------------------------------|
|------------------------------------------------------------|
|-------6-4---4--------4-----4-----4-------------------------|
|---4/6------6-6---2/4---2/4---2/4---------------------------|
|------------------------------------------------------------|
|------------------------------------------------------------|
intro²
|---4---4-----2---------|
|---4---4-----2---------|
|---6---4-----3---------|
|---6---4-----4---------| (2x)
|---4---4-----4---------|
|---4---4-----2---------|

Verse 1

]
|---4-----4-----2----2----1---------2--|
|---4-----4-----2----2----2---------2--|
|---6-----4-----3----2----3---------3--|
|---6-----4-----4----4----3---------4--| (2x)
|---4-----4-----4----4----1---------4--|
|---4-----4-----2----2----1---------2--|

Do

Doro darake yo najime nai tokai de Onaji you ni warae nai utsumuite aruita no Isogi ashi de surechigau hito-tachi “Yume wa kanai mashita ka?” ATASHI mada MOGAite iru

Pre-chorus

|--2----------2-----2--------1-------6---------4-------6------3----|
|--2----------2-----2--------2-------6---------4-------6------3----|
|--4----------3-----4--------3-------8---------4-------6------3----|
|--4----------4-----4--------3-------8---------6-------8------5----|
|--2----------4-----2--------1-------6---------6-------8------5----|
|--2----------2-----2--------1-------6---------4-------6------3----|
Kodomo no goro ni modoru yori mo Ima wo umaku ikite mitai yo Kowagari wa umare tsuki
|-0-------2-----------6--------4---|--0------2------------4---------|
|-0-------2-----------6--------4---|--0------2------------4---------|
|-1-------3-----------8--------4---|--1------3------------4---------| (2x)
|-2-------4-----------8--------6---|--2------4------------6---------|
|-2-------4-----------6--------6---|--2------4------------6---------|
|-0-------2-----------6--------4---|--0------2------------4---------|

Bi Ano