10cc - Wall Street Shuffle Text Guitar Tab

Learn the song with the online tablature player
This is a very easy song and it's very good for the beginner!

     E  E  Q    Q    E  E     E  E  Q    Q    Q       E  E  Q    Q    E  E
E||------------------------|-----------------------|------------------------|
B||------------------------|-----------------------|------------------------|
G||------------------------|-----5--5----7---------|------------------------|
D||--------3---------------|-----5--5----7---------|--------3---------------|
A||--3--5-------5----3--5--|-----3--3----5---------|--3--5-------5----3--5--|
E||------------------------|-----------------------|------------------------|

  E  E  Q    Q    Q
-----------------------||
-----------------------||
-----5--5----7---------||
-----5--5----7---------||
-----3--3----5---------||
-----------------------||

Duration Legend

W - whole
H - half
Q - quarter
E - 8th
S - 16th
T - 32nd
X - 64th
. - note dotted
|-n-|  - n-tuplets

L - tied note
x - dead note
g - grace note
(n) - ghost note
> - accentuded note
NH - natural harmonic
AH - artificial harmonic
TH - tapped harmonic
SH - semi harmonic
PH - pitch harmonic
h - hammer on
p - pull off
b - bend
br - bendRelease
pb - preBend
pbr - preBendRelease
brb - bendReleaseBend
\n/ - tremolo bar dip
\n - tremolo bar dive
-/n - tremolo bar Release up
/n\ - tremolo bar inverted dip
/n - tremolo bar return
-\n - tremolo bar Release down
S - shift slide
s - legato slide
/ -  slide into from below or out of upwards
\ -  slide into from above or out of downwards
~ - vibrato
W - wide vibrato
tr - trill
TP - tremolo picking
T - tapping
S - slap
P - pop
< - fade in
^ - brush up
v - brush down