12 Stones - Lie To Me Text Guitar Tab

Learn the song with the online tablature player
intro lead
e-14-------------14-15---|
B---15----15----------15-|
G-----14------14---------|
D------------------------|
A------------------------|
D------------------------|

intro rhythm
e------------|
B------------|
G------------|
D-9--7--5--0-|
A-9--7--5--0-|
D-9--7--5--0-|

verse
just play around with the intro clean)

chorus
e--------------|
B--------------|
G--------------|
D-2--5--0--7---|
A-2--5--0--7---|
D-2--5--0--7---|

bridge
e------------                 -------------|
B------------                 -------------|
G------------                 -------------|
D-9-x-7-x-4-x-7- (x2) then    -5--0--7--7--|
A-9-x-7-x-4-x-7-              -5--0--7--7--|
D-9-x-7-x-4-x-7-              -5--0--7--7--|

these are pretty much the only parts of the song just put \'em together. i\'m in a sling
now or this would be more detailed