12 Stones - Running Out Of Pain Text Guitar Tab

Learn the song with the online tablature player
This is a great song. It's easy to play. Just follow the song for strumming.

e|---------------------------------------------------------|e
B|-------3--3-----0-----3--0-----------5--5-----0-----5--0-|B
G|---0--------0-----0--------------0--------0-----0--------|G
D|-----2--------2-----2--------------4--------4-----4------|D
A|-3-----------------------------5-------------------------|A
D|---------------------------------------------------------|D
                                                   Play 2x
Chorus
e|------------------------------------------------------------|e
B|------------------------------------------------------------|B
G|------------------------------5-5-5-5-5-5-5/7-7-7-7-7-7-7-7-|G
D|2-2-2-2-2-2-2/4p0-0-0-0-0-0-0p5-5-5-5-5-5-5/7-7-7-7-7-7-7-7-|D
A|2-2-2-2-2-2-2/4p0-0-0-0-0-0-0p3-3-3-3-3-3-3/5-5-5-5-5-5-5-5-|A
D|2-2-2-2-2-2-2/4p0-0-0-0-0-0-0-------------------------------|D
Listen to the song and try to follow with the strumming. Let it ring some in
between strums.                               Play 2x

Intro
(once more)

e|-------------------------------------------------------------------|e
B|-------------------------------------------------------------------|B
G|-------0--0-----------0--0-----------0--0-----------0--0-----------|G
D|-----4------4-------4------4-------4------4-------4------4---------|D
A|---2----------2---2----------2---2----------2---2----------2-------|A
D|-2--------------2--------------0--------------0--------------------|D

e|---------------------------------------------------------|e
B|--------3--3-----0-----3--0-----------5--5-----0-----5--0|B
G|----0--------0-----0--------------0--------0-----0-------|G
D|------2--------2-----2--------------4--------4-----4-----|D
A|--3-----------------------------5------------------------|A
D|---------------------------------------------------------|D
                                                 Play 2x

e|----------------------------------------------------------------|e
B|----------------------------------------------------------------|B
G|------------------------------5-5-5-5-5-5-5/7-7-7-7-7-7-7-7-----|G
D|2-2-2-2-2-2-2/4p0-0-0-0-0-0-0p5-5-5-5-5-5-5/7-7-7-7-7-7-7-7-----|D
A|2-2-2-2-2-2-2/4p0-0-0-0-0-0-0p3-3-3-3-3-3-3/5-5-5-5-5-5-5-5-----|A
D|2-2-2-2-2-2-2/4p0-0-0-0-0-0-0-----------------------------------|D
   Play 2x

Bridge
e|-----------------------------------------------|e
B|-----------------------------------------------|B
G|-----------------------------------------------|G
D|2-2-2-5-4-2-4-2-4-5-0-0-0-4-2-0-2-0-2-4--------|D
A|2-2-2-5-4-2-4-2-4-5-0-0-0-4-2-0-2-0-2-4--------|A
D|2-2-2-5-4-2-4-2-4-5-0-0-0-4-2-0-2-0-2-4--------|D

That's it, sorry about the solo.