1974 Ad - Nepali Text Guitar Tab

Learn the song with the online tablature player
This song is one of AD's best song I have ever heard. I have presented the tab for
two guitars,here indicated as guitar I and guitar II separately. About the chords,
this is pretty much popular song, you can search it elsewhere!!!

                             NEPALI - 1974 A.D.

Guitar I

Intro

     C         Em          A                           F
E||---------------------|---------------------------|-----------------------|
B||---------------------|---------------------------|-----------------------|
G||---------------------|---------------------------|-----------------------|
D||--10--------9--------|--7--------7----9----10----|-----------------------|
A||---------------------|-----------x---------------|--8~-------------7h8h7-|
E||---------------------|-----------x---------------|-----------------------|

  Dm                   G                    G
--------------------|--------------------|------------------------------|
--------------------|--------------------|------------------------------|
--------------------|--------------------|------------------------------|
--------------------|--9~-------7~-------|--5~---------x----------------|
--------------------|--------------------|-----------x~--5~---7~---8~---|
--10~---------------|--------------------|---------x~-------------------|

  C                   C                Now You know the chords!!!
-------------------|------------------|---------------------|
-------------------|------------------|---------------------|
-------------------|------------------|---------------------|
-------------------|------------------|--10~-------9~-------|
--7~---------------|------------------|--x~--------x~-------|
-------------------|------------------|--x~--------x~-------|

---------------------------|-----------------------|--------------------|
---------------------------|-----------------------|--------------------|
---------------------------|-----------------------|--------------------|
--7~-------7----9----10----|-----------------------|--------------------|
--x~-------x---------------|--8~-------------7h8h7-|--------------------|
--x~-------x---------------|-----------------------|--10~---------------|

--------------------|--------------------------------|-------------------|
--------------------|--------------------------------|-------------------|
--------------------|--------------------------------|-------------------|
--9~-------7~-------|--5~-----------x----------------|-------------------|
--x~-------x~-------|--x~---------x~--5~---7~---8~---|--7~---------------|
--x~-------x~-------|--x~-------x~-------------------|-------------------|

First Guitar Solo for Guitar I

--------------------------|--8-----8--7----5----3--|--5--------5----7----8-|
--------------------------|------------------------|-----------------------|
----------------------7/9-|-----9-----7----5----4--|--5--------5----7----9-|
--------------------------|------------------------|-----------------------|
--------------------------|------------------------|-----------------------|
--------------------------|------------------------|-----------------------|

--8--10h8-----------------|-------------------10h12h13--------|
----------10--------------|----------10h12h13-----------------|
--------------10----------|--9h10h12--------------------------|
--------------------------|-----------------------------------|
--------------------------|-----------------------------------|
--------------------------|-----------------------------------|

----------10-----------------|---------8-----------------|
--10h-12------10h---8--------|--8h-10-----10----8--------|
-----------------------10----|---------------------10----|
-----------------------------|---------------------------|
-----------------------------|---------------------------|
-----------------------------|---------------------------|

--8h-10--12-----------------|----------------------|--8-----8--7----5----3-|
-------------8-----------8--|----------------------|-----------------------|
------------------9h-10-----|------------------7/9-|-----9-----7----5----4-|
----------------------------|--10------------------|-----------------------|
----------------------------|----------------------|-----------------------|
----------------------------|----------------------|-----------------------|

--5--------5----7----8----|--8--10h8-----------------|
--------------------------|----------10--------------|
--5--------5----7----9----|--------------10----------|
--------------------------|--------------------------|
--------------------------|--------------------------|
--------------------------|--------------------------|

-------------------10h12h13--------|----------10-----------------|
----------10h12h13-----------------|--10h-12------10/---8--------|
--9h10h12--------------------------|-----------------------10----|
-----------------------------------|-----------------------------|
-----------------------------------|-----------------------------|
-----------------------------------|-----------------------------|

---------8-----------------|--8h-10--12-----------------|------------------|
--8h-10-----10----8--------|-------------8-----------8--|------------------|
---------------------10----|------------------9h-10-----|------------------|
---------------------------|----------------------------|--10~-------------|
---------------------------|----------------------------|------------------|
---------------------------|----------------------------|------------------|

Second Guitar Solo for Guitar one or actually the interlude before the solo!!!

|---------------------|
|---------------------|
|---------------------|
|--------5----4----2--|
|--------3----2----0--|
|---------------------|

------------------------|-----------------------|------------------|
------------------------|--0--1-----------------|------------------|
------------------0--2--|-----------------------|------------------|
---------0--2--3--------|----------0----0----5--|------------------|
------3-----------------|----------x----x----3--|------------------|
------------------------|----------3----3-------|------------------|

---------------------|------------------------|-----------------------|
---------------------|------------------------|--0--1-----------------|
---------------------|------------------0--2--|-----------------------|
--------5----4----2--|---------0--2--3--------|----------0----0----0--|
--------3----2----0--|------3-----------------|----------x----x----x--|
---------------------|------------------------|----------3----3----3--|

--------------------------|--------------------------|
--------------------------|--------------------------|
--------------------------|--------------------------|
--------------------------|--------------------------|
--3--3--3--3--3--3--3--3--|--5--5--5--5--5--5--5--5--|
--1--1--1--1--1--1--1--1--|--3--3--3--3--3--3--3--3--|

--12--12--12--13----15~-15/---|--12--12--12--13----15~-15/---|
------------------------------|------------------------------|
------------------------------|------------------------------|
------------------------------|------------------------------|
------------------------------|------------------------------|
------------------------------|------------------------------|

--12--12--12--13----15~-15/---|--12--12--12--13----15~-15/---|
------------------------------|------------------------------|
------------------------------|------------------------------|
------------------------------|------------------------------|
------------------------------|------------------------------|
------------------------------|------------------------------|

---------------8-----|--------------------|---------------------------|
---------------------|--------------------|---------------------------|
----7~------------7r-|----5--7~-----------|---------------5-----5--7--|
---------------------|--------------------|---------5--7-----7--------|
---------------------|--------------------|--3--5/7-------------------|
---------------------|--------------------|---------------------------|

-------------8----------|--8h10h8h0--0--10h12h10h0--0--8h10h8h0--|
------8--10-------------|----------------------------------------|
--7/9-------------------|----------------------------------------|
------------------------|----------------------------------------|
------------------------|----------------------------------------|
------------------------|----------------------------------------|

--8h10h8h0--0--10h12h10h0--0--8h10h8h0--|
----------------------------------------|
----------------------------------------|
----------------------------------------|
----------------------------------------|
----------------------------------------|

--8h10h8h0--0--10h12h10h0--0--8h10h8h0--|
----------------------------------------|
----------------------------------------|
----------------------------------------|
----------------------------------------|
----------------------------------------|

--8h10h8h0--0--10h12h10h0--0--8h10h8h0--|--5h0-0-7h0-0-8h0-0-7h0-0-5h0-7h0-|
----------------------------------------|----------------------------------|
----------------------------------------|----------------------------------|
----------------------------------------|----------------------------------|
----------------------------------------|----------------------------------|
----------------------------------------|----------------------------------|

--7h0-0-8h0-0-10h0-0-8h0-0-7h0-8h0-|---------------------------|
-----------------------------------|---------------------------|
-----------------------------------|---------------5-----5--7--|
-----------------------------------|---------5--7-----7--------|
-----------------------------------|--3--5/7-------------------|
-----------------------------------|---------------------------|

                          End for guitar I
-------------8----------|
------8--10-------------|
--7/9-------------------|
------------------------|
------------------------|
------------------------|

Guitar II

Intro

E||--------------------|--------------------------|-------------------|
B||--------------------|--------------------------|-------------------|
G||--9~-------7~-------|--5~-------5----7----9----|-------------------|
D||--------------------|-----------x--------------|--7~---------------|
A||--------------------|-----------x--------------|-------------------|
E||--------------------|--------------------------|-------------------|

-------------------|--------------------|-------------------------------|
-------------------|--------------------|-------------------------------|
-------------------|--7~-------5~-------|--4~------------4~---5~---7~---|
--7~---------------|--------------------|--------------x----------------|
-------------------|--------------------|------------x~-----------------|
-------------------|--------------------|----------x--------------------|

-------------------|------------------|--------------------|
-------------------|------------------|--------------------|
--5~---------------|------------------|--9~-------7~-------|
-------------------|------------------|--------------------|
-------------------|------------------|--------------------|
-------------------|------------------|--------------------|

--------------------------|-------------------|-------------------|
--------------------------|-------------------|-------------------|
--5~-------5----7----9----|-------------------|-------------------|
-----------x--------------|--7~---------------|--7~---------------|
-----------x--------------|-------------------|-------------------|
--------------------------|-------------------|-------------------|

--------------------|--------------------------------|-------------------|
--------------------|--------------------------------|-------------------|
--7~-------5~-------|--4~-------------4~---5~---7~---|--5~---------------|
--------------------|---------------x----------------|-------------------|
--------------------|-------------x~-----------------|-------------------|
--------------------|-----------x~-------------------|-------------------|

1st Guitar Solo

------------------------|-------------------------|------------------------|
------------------------|-------------------------|------------------------|
------------------------|--9------9--7----5----4--|--5--------5----7----9--|
-------------------9/10-|-----10-----9----7----5--|--7--------7----9----10-|
------------------------|-------------------------|------------------------|
------------------------|-------------------------|------------------------|

--------------------|----------------------------------|
--------------------|------------------10h12h13--------|
--10----------------|----------9h10h12-----------------|
--12----------------|--9h10h12-------------------------|
--------------------|----------------------------------|
--------------------|----------------------------------|

----------10-----------------|---------8-----------------|
--10h-12------10/---8--------|--8h-10-----10----8--------|
-----------------------10----|---------------------10----|
-----------------------------|---------------------------|
-----------------------------|---------------------------|
-----------------------------|---------------------------|

--8h-10--12-----------------|-----------------------|----------------------|
-------------8-----------8--|-----------------------|----------------------|
------------------9h-10-----|-----------------------|--9------9--7----5----|
----------------------------|--10--------------9/10-|-----10-----9----7----|
----------------------------|-----------------------|----------------------|
----------------------------|-----------------------|----------------------|

---------------------------|--------------------|
---------------------------|--------------------|
--5--------5----7----9-----|--10----------------|
--7--------7----9----10----|--12----------------|
---------------------------|--------------------|
---------------------------|--------------------|

----------------------------------|----------10-----------------|
------------------10h12h13--------|--10h-12------10/---8--------|
----------9h10h12-----------------|-----------------------10----|
--9h10h12-------------------------|-----------------------------|
----------------------------------|-----------------------------|
----------------------------------|-----------------------------|

---------8-----------------|--8h-10--12-----------------|------------------|
--8h-10-----10----8--------|-------------8-----------8--|------------------|
---------------------10----|------------------9h-10-----|------------------|
---------------------------|----------------------------|--10--------------|
---------------------------|----------------------------|------------------|
---------------------------|----------------------------|------------------|

Interlude and Second Guitar Solo for Guitar II

---------------------|------------------------|-----------------------|
---------------------|------------------------|--0--1-----------------|
---------------------|------------------0--2--|-----------------------|
--------5----4----2--|---------0--2--3--------|----------0----0----5--|
--------3----2----0--|------3-----------------|----------x----x----3--|
---------------------|------------------------|----------3----3-------|

------------------|---------------------|------------------------|
------------------|---------------------|------------------------|
------------------|---------------------|------------------0--2--|
------------------|--------5----4----2--|---------0--2--3--------|
------------------|--------3----2----0--|------3-----------------|
------------------|---------------------|------------------------|

-----------------------|--------------------------|------------------------|
--0--1-----------------|--------------------------|------------------------|
-----------------------|--------------------------|------------------------|
----------0----0----0--|--------------------------|------------------------|
----------x----x----5--|--3--3--3--3--3--3--3--3--|--5--5--5--5--5--5--5--5|
----------3----3----3--|--1--1--1--1--1--1--1--1--|--3--3--3--3--3--3--3--3|

---------------------------|---------------------------|
---------------------------|---------------------------|
--9--9--9--10----12~-12/---|--9--9--9--10----12~-12/---|
---------------------------|---------------------------|
---------------------------|---------------------------|
---------------------------|---------------------------|

---------------------------|---------------------------|---------------8---|
---------------------------|---------------------------|-------------------|
--9--9--9--10----12~-12/---|--9--9--9--10----12~-12/---|----7~-----------7r|
---------------------------|---------------------------|-------------------|
---------------------------|---------------------------|-------------------|
---------------------------|---------------------------|-------------------|

--------------------|------------------------------------|
--------------------|--------------------13------13--15--|
----5--7~-----------|------------12--14------14----------|
--------------------|--10--12/14-------------------------|
--------------------|------------------------------------|
--------------------|------------------------------------|

--------15--17--20----------|--12h13h12h0--0--13h15h13h0--0--12h13h12h0--|
--15/17---------------------|--------------------------------------------|
----------------------------|--------------------------------------------|
----------------------------|--------------------------------------------|
----------------------------|--------------------------------------------|
----------------------------|--------------------------------------------|

--12h13h12h0--0--13h15h13h0--0--12h13h12h0--|
--------------------------------------------|
--------------------------------------------|
--------------------------------------------|
--------------------------------------------|
--------------------------------------------|

--12h13h12h0--0--13h15h13h0--0--12h13h12h0--|
--------------------------------------------|
--------------------------------------------|
--------------------------------------------|
--------------------------------------------|
--------------------------------------------|

--12h13h12h0--0--13h15h13h0--0h-12h13h12h0--|
--------------------------------------------|
--------------------------------------------|
--------------------------------------------|
--------------------------------------------|
--------------------------------------------|

--8h0-0-10h0-0-12h0-0-10h0-0-8h0-10h0-|
--------------------------------------|
--------------------------------------|
--------------------------------------|
--------------------------------------|
--------------------------------------|

10h0-0-12h0-0-13h0-0-12h0-0-10h0-12h0-|
--------------------------------------|
--------------------------------------|
--------------------------------------|
--------------------------------------|
--------------------------------------|

------------------------------------|--------15--17--20----------|
--------------------13------13--15--|--15/17---------------------|
------------12--14------14----------|----------------------------|
--10--12/14-------------------------|----------------------------|
------------------------------------|----------------------------|
------------------------------------|----------------------------|