2 Minutos - 1987 Text Guitar Tab

Learn the song with the online tablature player
2 Minutos - 1987

INTRO
 G---------------------------------
 D---------------------------------
 A-------7--5--2-------------------
 E----5----------------------------

VERSO :
 G---------------------------------
 D---------------------------------
 A-------7--5--2-------------------
 E ---5----------------------------

PUENTE :
 G---------------------------------
 D---------------------------------
 A--4--7--3--7---------------------
 E --------------------------------