2 Minutos - Borracho Y Agresivo Text Guitar Tab

Learn the song with the online tablature player
2 MINUTOS - BORRACHO Y AGRESIVO

INTRO
LENTO
1------------------
2------------------
3------77------9-7-
4--55------55------

1----------------
2----------------
3------55--------
4--22------5(*6)-

VERSO RAPIDO
1------------------
2------------------
3------77------9-7-
4--55------55------

1----------------
2----------------
3------55--------
4--22------5(*6)-