2 Skinnee Js - 718 Text Guitar Tab

Learn the song with the online tablature player
G:---------:--------------------------|
D:---------:--------------------------|
A:---4-4---:---6-----4-----6----4-----|
E:---------:------6-----4-----6---4---|

G:-------------|
D:-------------|  <- This part sounds better as 4 on low b
A:-------------|  string if you have one.
E:---0-0-0-0---|

I dont know if this next part is actually played by bass during funky
keyboard solo but it sounds good.
The first half is played later in the song also.

G:--------------:----------------------|
D:--------------:--------------4-6-4---|
A:---4--6-6-6---:---4--6-6-6-----------|
E:--------------:----------------------|

There are all of the parts.  Listen to the song to tell where they go,
exactly how many times each note is played and how many times each part
is repeated.