28 Days - He Could Be Text Guitar Tab

Learn the song with the online tablature player
A SECTION
G:---------------------------------------------------------------
D:---------------------------------------------------------------
A:--77-7-77-7-10-8-10-8--x-55-5-55-5-55-5-55---------------------
E:---------------------------------------------------------------

A2
G:---------------------------------------------------------------
D:---------------------------------------------------------------
A:---------------------------------------------------------------
E:-00-00-00-00---------------------------------------------------

B SECTION
G:---------------------------------------------------------------
D:---------------------------------------------------------------
A:------22-3-5---------------------------------------------------
E:-0-00-------1-11-11-11-----------------------------------------