311 - Dancehall Text Guitar Tab

Learn the song with the online tablature player
Intro
e|-------------|-------------|--------------|-----------------------|
B|-------------|-------------|--------------|-----------------------|
G|-------------|-------------|--------------|-----------------------|
D|-------------|-------------|--------------|-----------2--2--------|
A|-2----2------|-2----2------|-2----2-------|-2----2----3--0--3--2--|
E|-0----0------|-0----0------|-0----0-------|-0----0----------1--0--|

Verse Riff
0:17-0:38) - play end bar of intro

Riff 2
played 4x              Riff 2A: Play 4x
e|--------------------|       -----------------------------|
B|--------------------|       -----------------------------|
G|--------------------|       -----------------------------|
D|--------------------|       -----------------------------|
A|-3---3-----6---6----|       -3--x-3--x-x-x-6--x-6--x-x-x-|
E|-1---1-----4---4----|       -1--x-1--x-x-x-4--x-4--x-x-x-|

During Riff 2A, Guitar 2 plays some harmonics (*) like this:
e|---------------------------------------------------|
B|---------------------------------------------------|
G|---------------------------------------------------|
D|---------------------------------------------------|
A|---------------------------------------------------|
E|-1---x--1--*2.3-*2.7-*3--*4-*4-*4-*4--*3-*2.7-*2.3-|

The approximate position of higher harmonics can be between 2 frets,
which I indicate above.

Riff 3
1:00-1:22)
e|-0------------0------------0-----3~---|  bend last notes
B|-0------------0------------0-----3~---|    slightly
G|-1------------1------------1----------|
D|-2--2--2----2-2--2--2----2-2--2-------|
A|-2--2--2----2-2--2--2----2-2--2-------|
E|-0--0--0----0-0--0--0----0-0--0-------|
PM:   ^  ^    ^    ^  ^    ^    ^

Play Verse Riff Again

Play Riff 2 and Riff 2A again (1:43-2:05)

Play Riff 3 again

Play Riff 2A again (2:16)

Play Riff 3 again and repeat to end song

Key:

| *  harmonic
| x  Mute note
| ^  palm mutes