311 - Guns Are For Pussies Text Guitar Tab

Learn the song with the online tablature player
                             Guns (Are For Pussies) - 311

Verse

e|---------------------------------------------------------------------------|
B|---------------------------------------------------------------------------|
G|---------------------------------------------------------------------------|
D|---------------------------------------------------------------------------|
A|-0-4-0-4-5--5---0-4-0-4-5--5-----------------------------------------------|
E|-------------------------------0-2-0-2-3--3---0-2-0-2-3--3(3)--------------|

 Pre chorus:

e|---------------------------------------------------------------------------|
B|---------------------------------------------------------------------------|
G|---------------------------------------------------------------------------|
D|---------------------------------------------------------------------------|
A|---------2---------------2-----------------2---------------3-5-2-----------|
E|-1-3--33---3--33-1-3--33---3--333--1-3--33---3--33-1-3--33-------33--------|

Chorus

e|---------------------------------------------------------------------------|
B|---------------------------------------------------------------------------|
G|---------------------------------------------------------------------------|
D|---------------------------------------------------------------------------|
A|---------------------------------------------------------------------------|
E|-(0)5-00-5-5-0-3-00-2-2----------------------------------------------------|

 Ending: (not too sure about playing all open strings, sounds like it might have to
be played in drop d.)

e|---------------------------------------------------------------------------|
B|---------------------------------------------------------------------------|
G|---------------------------------------------------------------------------|
D|-0-0-0--44424--0-0-0--44424--2-2-2--44434--2-2-2--44442--(0)---------------|
A|-0-0-0--44424--0-0-0--44424--2-2-2--44434--2-2-2--44442--(0)---------------|
E|-0-0-0--22202--0-0-0--22202--0-0-0--22212--0-0-0--22220--(0)---------------|

heres how it goes:

Verse x4
play the (3) the last time)
Pre chorus x2

Chorus x8
don't play (0) the 1st time)
Verse x4
Pre chorus x2
Chorus x8
Ending x2 (play (0) last time)  thats it! hope its good!