311 - Inner Light Spectrum Text Guitar Tab

Learn the song with the online tablature player
'Inner Light Spectrum'
Performed by 311
From the album "Transistor" on Capricorn/Mercury Records
Music by:  C. Sexton & D. Martinez
Lyrics by:  D. Martinez

Fill 1 (w/same effect as Intro):
   [N.C.]
1:-2-
2:---
3:---
4:---
5:---
6:---

Riff 1
w/flanger):
   [N.C.]
1:--------------------------------
2:--------------------------------
3:--------------------------------
4:-----------------1-1--4-4--1--4-
5:--------------------------------
6:-2-2--4-4--2--4-----------------

Riff 2
w/flanger):
   G#   F#
1:-4-4--2-2-
2:-4-4--2-2-
3:-5-5--3-3-
4:----------
5:----------
6:----------

Riff 3
(w/flanger):
   G#      F#
1:-4--4--4-2--2--2-
2:-4--4--4-2--2--2-
3:-5--5--5-3--3--3-
4:-----------------
5:-----------------
6:-----------------

Solo
Bass & Guitar):
   [N.C.]
1:---------------------------------------------------------------------
2:---------------------------------------------------------------------
3:---------------------------------------------------------------------
4:------------------6-----6---------//6-6-6-5--------------------------
5:-------4h6-6--4-6---4-6---6-6-4-4-----------6--4h6-------------------
6:-3-4/6---------------------------------------------4h6-6-3---3-4-6-6-

   [N.C.]  G#
1:-------4-
2:-------4-
3:-------5-
4:-------6-
5:-------6-
6:-3-4-6-4-

Bass: plays an Eb on the B string

5:-------------------------4---------4---------

Riff 4
w/flanger):
   G#         F
1:-4-4--4-4---2-2--2-2-
2:-4-4--4-4---2-2--2-2-
3:-5-5--5-5---3-3--3-3-
4:---------------------
5:---------------------
6:---------------------