311 - Push It Away Text Guitar Tab

Learn the song with the online tablature player
'Push it Away'
Performed by 311
From the album "Dammit!" on What Have You Records
Music by:  N. Hexum
Lyrics by:  N. Hexum
(c) 1991 Allegiance Music/Hydroponic Music BMI

Riff 1
=======
   E        A
1:--------------------|
2:----------2--2--2-2-|
3:-1--1--1--2--2--2-2-|
4:-2--2--2--2--2--2-2-|
5:-2--2--2--0--0--0-0-|
6:-0--0--0------------|

Riff 2
=======
   E       D       C#            D
1:---------------------------------|
2:-9-9-9-9-7-7-7-7-6-6-6-6---6---7-|
3:-9-9-9-9-7-7-7-7-6-6-6-6---6---7-|
4:-9-9-9-9-7-7-7-7-6-6-6-6---6---7-|
5:-7-7-7-7-5-5-5-5-4-4-4-4---4---5-|
6:---------------------------------|

Riff 3
=======
   E       G           D         Bb
1:---------------------------------|
2:-9-9-9-9-12-12-12-12-7-7-7-7-----|
3:-9-9-9-9-12-12-12-12-7-7-7-7-----|
4:-9-9-9-9-12-12-12-12-7-7-7-7---8-|
5:-7-7-7-7-10-10-10-10-5-5-5-5---8-|
6:-------------------------------6-|

Ending
=======
   E    D    B    G5   E
1:-----------------------|
2:-9----7----4-----------|
3:-9----7----4---------1-|
4:-9----7----4----5----2-|
5:-7----5----2----5----2-|
6:----------------3----0-|