311 - This Too Shall Pass Text Guitar Tab

Learn the song with the online tablature player
'This Too Shall Pass'
Performed by 311
From the album "Dammit!" on What Have You Records
Music by:  N. Hexum
Lyrics by:  N. Hexum
(c) 1991 Allegiance Music/Hydroponic Music BMI

Intro
======
[Guitar 1:]

   E7   A
1:--------|
2:--------|
3:-7----6-|
4:-6----7-|
5:-5----4-|
6:--------|

[Guitar 2:]

   [N.C.]
1:--------------------------------------|
2:--------------------------------------|
3:-------------4------------------------|
4:--------6--6---6-7----7-6------4------|
5:-4h5p4--------------9-----7--5---5----|
6:-----------------------------------7--|

Verse
======
[Guitar 1:]

   [N.C.]
1:----------------------------------------------|
2:----------------------------------------------|
3:----------------------------------------------|
4:-------------7--7--9-7----------------7-7-7-7-|
5:-7--7--9-7---0--0--0-0---7--7--9-7----0-0-0-0-|
6:-0--0--0-0---------------0--0--0-0------------|

[Guitar 2: (Acoustic):]

   E7          A           E7           A
1:-0--0--0-0---0--0--0-0---0--0--0-0----0-0-0-0-|
2:-0--0--0-0---2--2--2-2---0--0--0-0----2-2-2-2-|
3:-1--1--1-1---2--2--2-2---1--1--1-1----2-2-2-2-|
4:-0--0--0-0---2--2--2-2---0--0--0-0----2-2-2-2-|
5:-2--2--2-2---0--0--0-0---2--2--2-2----0-0-0-0-|
6:-0--0--0-0---------------0--0--0-0------------|

Riff 1
=======
   C#m       E       C#m       E    C#m       E
1:----------------------------------------------------|
2:----------------------------------------------------|
3:----------------------------------------------------|
4:----2-----------------2--------------2--------------|
5:-4----4----2---2h4-4----4----2--2-4----4----2---2h4-|
6:--------4----4------------4--------------4----4-----|

   C#m     E
1:---------------------|
2:---------------------|
3:---------------------|
4:----2----------------|
5:-4----4--2-2-2-2-----|
6:-----------------0-3-|

Riff 2
=======
   E5    C#5  D5    E5    C#5 D5 C#5 D5 [N.C.]
1:------------------------------------------|
2:------------------------------------------|
3:-9--9--6-6--7-----9--9--6-6--7--6--7------|
4:-9--9--6-6--7-----9--9--6-6--7--6--7------|
5:-7--7--4-4--5-----7--7--4-4--5--4--5------|
6:--------------------------------------0-3-|

   E5    C#5  D5    E5    C#5  D5 [N.C.] C#5->D5
1:------------------------------------------|
2:------------------------------------------|
3:-9--9--6-6--7-----9--9--6-6--7------------|
4:-9--9--6-6--7-----9--9--6-6--7--5-4--6//7-|
5:-7--7--4-4--5-----7--7--4-4--5-------4//5-|
6:------------------------------------------|
                ***
NOTE: The second time you play this, about half-way
into the first linem Tim picks the 7th fret on 3rd
string and goes down half a step with the whammy
bar.

Riff 3
=======
   E5
1:---------------------------|
2:---------------------------|
3:-9-----9-----9-----9-----9-|
4:-9-----9-----9-----9-----9-|
5:-7-----7-----7-----7-----7-|
6:---------------------------|

Riff 4
Fast):
   E7
1:-------------------------|
2:-------------------------|
3:-7-7--7-7--7-7--7-7--7-7-|
4:-9-9--9-9--9-9--9-9--9-9-|
5:-7-7--7-7--7-7--7-7--7-7-|
6:-------------------------|