311 - Whiskey And Wine Text Guitar Tab

Learn the song with the online tablature player
I think the tab of the solo I am posting is easier to play this way than other ways posted.

e|--------0---------------------------0----------------------|
B|------2---2h3-2---2---0-2---------2---2h3-2---2------------|
G|--2-4-----------4---2-----2---2-4-----------4---2-2-2-2-2--|
D|-----------------------------------------------------------|
A|-----------------------------------------------------------|
E|-----------------------------------------------------------|

e|--------0-----------------0-0-2-0-2-0----------------------|
B|------2---2h3-2---2---0-2-------------2-2-2-2-3-2-0-2------|
G|--2-4-----------4---2---------------------------------2----|
D|-----------------------------------------------------------|
A|-----------------------------------------------------------|
E|-----------------------------------------------------------|

Enjoy,
Kevin