311 - You Get Worked Text Guitar Tab

Learn the song with the online tablature player
311 - You Get Worked

Intro
w/Octaver):
   [N.C.]
e:---------------------------------------------------------------------------
B:---------------------------------------------------------------------------
G:---------------------------------------------------------------------------
D:-7-5-7--7-5-7-5-7---7-5-7--7-5-7-5-7---7-5-7--7-5-7-5-7---7-5-7--7-7-5-----
A:-----------------------------------------------------------------------7-6-
E:---------------------------------------------------------------------------
                                                         ***

Riff 1
w/Octaver):
[Guitar 1:]
Plays Intro Riff --> up to ***

[Guitar 2:]
   [N.C.]
e:-------------------------------------
B:-------------------------------------
G:-------------------------------------
D:-------------------------------------
A:-------------------------------------
E:-5-3-5--5-3-5-3-5---5-3-5--5-3-5-3-5-

   [N.C.]
e:-----------------------------------------
B:-----------------------------------------
G:-----------------------------------------
D:-----------------------------------------
A:-----------------------------------------
E:-5-3-5--5-3-5-3-5---5-3-5--5-3-0-1-0-1-0-

Riff 2
w/Palm Muting):
   E5
e:------------------------------
B:------------------------------
G:------------------------------
D:------------------------------
A:-2-2-2-2--2-2-2-2---2-2-2-(2)-
E:-0-0-0-0--0-0-0-0---0-0-0-(0)-
                           *
Second time through, play notes in ()
Fourth time through, play until *

Riff 3
w/Distortion and Other Effects(?)):
  ( E->E7(omit 3)->E7sus4->E7->E7sus2 )
e:--------------------------------
B:-----------10-9---9-----7-------
G:-----9-7------------7-----7---7-
D:---9-----9------------9-----9---
A:-7------------------------------
E:--------------------------------

Riff 4
w/Octaver):
    A5   G#5     [N.C.]   G#5
e:-----------------------------
B:-----------------------------
G:-----------------------------
D:----------6------------------
A:-(7)--(6)------3-4-6-(6-6-6)-
E:--5----4----4---------4-4-4--  (x3)

    A5   G#5     [N.C.]   F#5
e:-----------------------------
B:-----------------------------
G:-----------------------------
D:----------6------------------
A:-(7)--(6)------3-4-6-(4-4-4)-
E:--5----4----4---------2-2-2--

    A5   G#5     [N.C.]   G#5
e:-----------------------------
B:-----------------------------
G:-----------------------------
D:----------6------------------
A:-(7)--(6)------3-4-6-(6-6-6)-
E:--5----4----4---------4-4-4--  (x3)

    A5   G#5     [N.C.]
e:-----------------------
B:-----------------------
G:-----------------------
D:----------6----------4-
A:-(7)--(6)------3-4-6---
E:--5----4----4----------

Riff 5
w/Slight Palm Muting):
   [N.C.]
e:----------------------------------------
B:----------------------------------------
G:-8--8--8--8---8-8----8--8--8--8---8-8-8-
D:-x--x--x--x---x-x----x--x--x--x---x-x-x-
A:-6--6--6--6---6-6----6--6--6--6---6-6-6-
E:----------------------------------------

   [N.C.]
e:------------------------------11-11-11-11-
B:-------------------------------x--x--x--x-
G:-8--8--8--8---8-8----8--8--8---8--8--8--8-
D:-x--x--x--x---x-x----x--x--x--------------
A:-6--6--6--6---6-6----6--6--6--------------
E:------------------------------------------

Ending
   A5  G#5
e:-------
B:-------
G:-------
D:-------
A:-7---6-
E:-5---4-