36 Crazyfists - Eightminutesupsidedown Text Guitar Tab

Learn the song with the online tablature player
By:BOSTOCK

THIS SONG IS HARD TO PLAY BUT SATISFYING WHEN MASTERED. IF URE LIKE R-E-A-L-L-Y
GOOD U CAN TRY USING ECHO FOR THE INTO... BUT THEN SHARP INTO THE LOW DISTORT
STRAIGHT AFTER... GOOD LUCK!

e|--------|
b|--------|  INTRO
g|--7--9--|
d|--x--x--|
a|--5--7--|
E|--------|

e|------------------|
b|------------------|
g|--7--9--7--9--10--|  RIFF 1
d|--x--x--x--x--x---|
a|--5--7--5--7--8---|
E|------------------|

e|-------------|-------|
b|-------------|-------|
g|-------------|-------|   RIFF 2
d|--0-3p2p0h2--|--0-2--|
a|--0-3p2p0h2--|--0-2--|
E|--0-3p2p0h2--|--0-2--|
           (x3)     (x1)

e|-----------------|-------------------|
b|-----------------|-------------------|
g|-----------------|-------------------|   VERSE
d|-----------------|-------------------|
a|-----------------|-------2~-3~--3/5--|
E|--0000200030002--|--0000---0--0------|
PM  -------------     ----   -  -
               (x4)                (x4)

)
e|--------|----------|
b|--------|----------|
g|--------|----------|   CHORUS
d|--7--3--|--8--3-5--|
a|--7--3--|--8--3-5--|
E|--7--3--|--8--3-5--|

e|---------------------------|
b|---------------------------|
g|---------------------------|   BRIDGE
d|--9\7/9\7/9\7/9\7/9\7/9\7--|
a|--7\5/7\5/7\5/7\5/7\5/7\5--|
E|--7\5/7\5/7\5/7\5/7\5/7\5--|

SET LIST

INTRO      x2
TRY WITH ECHO IF U CAN)
RIFF 1     x2
RIFF 2     x2
VERSE
RIFF 1
VERSE
CHORUS     x2
BRIDGE
RIFF 2     x2
VERSE
CHORUS     x2
BRIDGE     x2
CHORUS     x2
RIFF 2     x2

CHEERS.. HOPE U GET OR HAVE GOT IT!