38 Special - Fantasy Girl Text Guitar Tab

Learn the song with the online tablature player
  E             B              E             B
|-0--------------------------|----------------------------|
|-0----------------4-2----4-2|------------------4-2----4-2|
|-1-1p22-1-1p22-2h44-2-2h44-2|-1-1p22-1-1p22-2h44-2-2h44-2|
|-2-2-22-2-2-22--------------|-2-2-22-2-2-22--------------|
|-2--------------------------|----------------------------|
|-0--------------------------|----------------------------|

  E             B
|----------------------------|
|------------------4-2----4-2|
|-1-1p22-1-1p22-2h44-2-2h44-2|
|-2-2-22-2-2-22--------------|
|----------------------------|
|----------------------------|
Lately I'm learnin that so many yearnin’s are never to be
  E             B
|----------------------------|
|------------------4-2----4-2|
|-1-1p22-1-1p22-2h44-2-2h44-2|
|-2-2-22-2-2-22--------------|
|----------------------------|
|----------------------------|
The childhood illusions are merely delusions of a girl that I see

C#m A     E                         A                      B
|44-55----7-7-7-7------|------------5----------------------7-|
|55-55----9-9-9-9------|------------5----------------------7-|
|66-66----9-9-9-9------|------------6----------------------8-|
|66-77----9-9-9-9------|------------7----------------------9-|
|44-77----7-7-7-7------|------------7----------------------9-|
|---55-----------------|------------5----------------------7-|
    In my minds eye I see clearly a vision of how it could be

  B                       E             D     B
|-7----------------------|-------------------------------|
|-7----------------------|9-10-10p9--9--77-77-4-5-5p4-4--|
|-8----------------------|9-11-11p9--9--77-77-4-6-6p4-4--|
|-9----------------------|9--------11---77-77-4------6---|
|-9----------------------|-------------------------------|
|-7----------------------|-------------------------------|
        Me and my fantasy girl,             Hold on to me,

 A   B    E             D     B
|--------|------------------------------------|
|--------|9-10-10p9--9--77-77-4-4-4-4-4-4-4-4-|
|--------|9-11-11p9--9--77-77-4-4-4-4-4-4-4-4-|
|--------|9--------11---77-77-4-4-4-4-4-4-4-4-|
|-4-7-6-9|------------------------------------|
|5---7---|------------------------------------|
  Be my fantasy girl, Don't set me free

Now I've had my share Sometimes I swear that I've had me enough
You end up in sorrow Broken tomorrows, love can be tough
But my minds eyed sees a vision of true love and how it should be

Me and my fantasy girl, Hold on to me
Be my fantasy girl, Don't set me free, Be my fantasy

(Lead)
  E         B                  E         B
|----------------------------|----------------------------|
|------------------4-2----4-2|------------------4-2----4-2|
|-1-1p22-1-1p22-2h44-2-2h44-2|-1-1p22-1-1p22-2h44-2-2h44-2|
|-2-2-22-2-2-22--------------|-2-2-22-2-2-22--------------|
|----------------------------|----------------------------|
|----------------------------|----------------------------|

  D A     E                         A                      B
|55-55----7-7-7-7------|------------5----------------------7-|
|77-55----9-9-9-9------|------------5----------------------7-|
|77-66----9-9-9-9------|------------6----------------------8-|
|77-77----9-9-9-9------|------------7----------------------9-|
|55-77----7-7-7-7------|------------7----------------------9-|
|---55-----------------|------------5----------------------7-|
Yeah, yeah, yeah
I see clearly a vision of how it could be, yeah, Be my fantasy

(Break)(Variations of)(3x)
|-----------------77|
|9-10-10p9--9--77-77|
|9-11-11p9--9--77-88|
|9--------11---77-99|
|-----------------99|
|-----------------77|

Yeah, yeah, yeah,    Yeah, yeah
|------------|
|9-10-10p9--9|
|9-11-11p9--9|
|9--------11-|
|------------|
|------------|

 A   B    E             D     B
|--------|------------------------------------|
|--------|9-10-10p9--9--77-77-4-4-4-4-4-4-4-4-|
|--------|9-11-11p9--9--77-77-4-4-4-4-4-4-4-4-|
|--------|9--------11---77-77-4-4-4-4-4-4-4-4-|
|-4-7-6-9|------------------------------------|
|5---7---|------------------------------------|
   Be my fantasy girl, Hold on to me.
   You’re my fantasy girl, Don't set me free

   Be my fantasy girl, Hold on to me.
   You’re my fantasy girl, Don't set me free, Yeah, from this fantasy