40 Below Summer - Smile Electric Text Guitar Tab

Learn the song with the online tablature player
. = palm mute (a lot of it in this song)
/ \ = slide

intro
---------------------------------|--------------------------------------------|
---------------------------------|--------------------------------------------|
---------------------------------|--------------------------------------------|
--0-0-0-0-0-0-0-0-0-0-0-0-0------|--3-----------------------------------------|
--0-0-0-0-0-0-0-0-0-0-0-0-0------|--3-----------------------------------------|
--0-0-0-0-0-0-0-0-0-0-0-0-0------|--3-----------------------------------------|
  . . . . . . . . . . . . .

verse
------------------------------------------------------------------------------|
------------------------------------------------------------------------------|
-----------------4------------------4-----------------------------------------|
-2-2-2--2-2-2-2--3--2-2-2--2-2-2-2--3-----------------------------------------|
-2-2-2--2-2-2-2--2--2-2-2--2-2-2-2--2-----------------------------------------|
-2-2-2--2-2-2-2-----2-2-2--2-2-2-2--------------------------------------------|
 . . .  . . . .     . . .  . . . .

prechorus
------------------------------------------------------------------------------|
------------------------------------------------------------------------------|
------------------------------------------------------------------------------|
-2-3-0-2--2-3-0-2--2-3-0-2----------------------------------------------------|
-2-3-0-2--2-3-0-2--2-3-0-2----------------------------------------------------|
-2-3-0-2--2-3-0-2--2-3-0-2----------------------------------------------------|
 . . . .  . . . .  . . . .

chorus
------------------------------------------------------------------------------|
------------------------------------------------------------------------------|
------------------------------------------------------------------------------|
-7--2--3---2--3--2--3-----7----2---3---2-3-0----------------------------------|
-7--2--3---2--3--2--3-----7----2---3---2-3-0----------------------------------|
-7--2--3---2--3--2--3-----7----2---3---2-3-0----------------------------------|

1:50
------------------------------------------------------------------------------|
------------------------------------------------------------------------------|
------------------------------------------------------------------------------|
-2-3-0-2/4\2--2-2-2--2/4\2----------------------------------------------------|
-2-3-0-2/4\2--2-2-2--2/4\2----------------------------------------------------|
-2-3-0-2/4\2--2-2-2--2/4\2----------------------------------------------------|
              . . .