4ft Fingers - Brickwall Text Guitar Tab

Learn the song with the online tablature player
This is the 1st track on 4ft's first album 'At Your Convenience'.
All credit to Peter Mannion, as he tabbed this song, i'm just spreading 4ft
around as you cannot find their tabs on many sites. =)
 Matt.

Legend:
 h = hammer on
 p = pull off
 / = slide
 : = let ring

INTRO/VERSE:
[guitar 1]
e|--------------------------------------------------------------------|
B|--------------------------------------------------------------------|
G|-----------7-7------------5-5------------7-7------5-5---5-5---------|
D|--5-5------7-7------2-2---5-5---5-5------7-7------5-5---5-5---------|
A|--5-5------5-5------2-2---3-3---5-5------5-5------3-3---3-3---------|
E|--3-3---------------0-0---------3-3---------------------------------|

[guitar 2]Intro only
e|--------------------------------------------------------------------|
B|--------------------------------------------------------------------|
G|--7--7--7--6-—7—-9--7-7-7—7-7---12-12-12-11-12-11-7-7-7-7-7---------|
D|--------------------------------------------------------------------|
A|--5--5--5--4--5--7--5-5-5-5-5---10-10-10-9--10-9--5-5-5-5-5---------|
E|--------------------------------------------------------------------|

CHORUS
e|---------------------------------------------------------------------------|
B|---------------------------------------------------------------------------|
G|--9-9--9--7-7--7--5--5-5--5--5-5-5-5--9-9--9--7-7--7--5--5-5--5--5-5-5-5---|
D|--9-9--9--7-7--7--5--5-5--5--5-5-5-5--9-9--9--7-7--7--5--5-5--5--5-5-5-5---|
A|--7-7--7--5-5--5--3--3-3--3--3-3-3-3--7-7--7--5-5--5--3--3-3--3--3-3-3-3---|
E|---------------------------------------------------------------------------|

e|---------------------------------------------------------------------------|
B|---------------------------------------------------------------------------|
G|-------9--7-7--7--5--5-5--5--5-5-5-5--9-9--9--7-7--7--5--5-5--5--5-5-5-5---|
D|-------9--7-7--7--5--5-5--5--5-5-5-5--9-9--9--7-7--7--5--5-5--5--5-5-5-5---|
A|-------7--5-5--5--3--3-3--3--3-3-3-3--7-7--7--5-5--5--3--3-3--3--3-3-3-3---|
E|---------------------------------------------------------------------------|

e|-----------------------|
B|-----------------------|
G|--7-7--7-7--7-7--7-7---|
D|--7-7--7-7--7-7--7-7---|
A|--5-5--5-5--5-5--5-5---|
E|-----------------------|

BRIDGE
e|---------------------------------------------------------------------------|
B|---------------------------------------------------------------------------|
G|--------------7-7---5---5-5-----7-7----------------------------------------|
D|--5---5-5-----7-7---5---5-5-----7-7----------------------------------------|
A|--5---5-5-----5-5---3---3-3-----5-5----------------------------------------|
E|--3---3-3------------------------------------------------------------------|

SOLO
(guitar 2)
e|----------------------------------------------------------|
B|----------------------------------------------------------|
G|--------------------------------7-5-4-5-7-5-4-5-5-7-5-4-5-|
D|------4-5-7-5-4-5-4-5-4---4-------------------------------|
A|--5-7-------------------7---------------------------------|
E|----------------------------------------------------------|

e|--------------------------------------------------------------|
B|--------------------------------------------------------------|
G|--4/5h7p5h7p5h7-5-4---5-4-------------------------------------|
D|--------------------7-----7-5-4-5---------4-5-7-5-4-5-4-5-4---|
A|------------------------------------5-5-7-------------------7-|
E|--------------------------------------------------------------|

e|----------------------------|
B|----------------------------|
G|----------------------------|
D|----------------4-4-4-5-7-5-|
A|--5-5--5-7-7--7-------------|
E|----------------------------|

OUTRO
(guitar 2)
e|---------------------------------------------------------------------------|
B|---------------------------------------------------------------------------|
G|--7-7—-7/9-9—-9/11-11—-11/12/14/12:----------------------------------------|
D|---------------------------------------------------------------------------|
A|--5-5—-5/7-7—-7/-9--9---9/10/12/10:----------------------------------------|
E|---------------------------------------------------------------------------|