4ft Fingers - Hopeless Romantic Text Guitar Tab

Learn the song with the online tablature player
From 4ft's first album 'At Your Convenience'.
All credit to Russ Carlin.

Intro
|-------------------------------------------------------------|
|-----11-13-14-----13-12-----12-11-11-12-14-12-11-------------|
|-14-------------14---------14-----------------------------14-|
|-------------------------------------------------------------|

Main riff
|------------------------------------------------|
|--2--2-2-----------------------------6h7p6-4-6--|
|----------0-2--2-0-2-4--4--4-4-7----------------|
|------------------------------------------------|

Bridge
|------------------------------------------|
|-2--2-2-1-2-4--4-4-2-4-6--6-6-4-6-7-6-7-6-|
|------------------------------------------|
|------------------------------------------|

Chorus
|--------------------------------------------|
|------------7-9--9-9-8-7--7-7-7-7-7---------|
|--7--7-7-9----------------------------------|
|------------------------------------------7-|

End
|-------|
|-------|
|-3/7---|
|-------|

|-----------------------------------9-----------------------|
|-----9-------9---9--11--9--9-11---9-11-9--9-11--7-9-7--7-6-|
|--7----7--7------------------------------------------------|
|-----------------------------------------------------------|

End on the E