4ft Fingers - One For The Road Text Guitar Tab

Learn the song with the online tablature player
BAnd:4ft Fingers
Song:One for the road

  here's another simple yet fun song to play.
hope you enjoy.

Intro
G|----------------------------|
D|----------------------------|
A|---323---323-55-323---323---|
E|-33----33-----------33------|

G|----------------------------|
D|----------------------------|
A|---323---323-53232--3-------|
E|-33----33---------53--------|

Verse1
G|----------------------------|
D|----------------------------|
A|----33----33-55-33----33----|
E|-33----33----------33-------|

G|----------------------------|
D|----------------------------|
A|----33----33-55-33----33----|
E|-33----33----------33-------|

Chorus
G|------------------------------------------------|
D|--------2----------------------2----------------|
A|---23555-5335/3p2p0-333---23555-5335/3p2p0-333--|
E|-33----------------3----33----------------3-----|

Verse2
G|----------------------------|
D|----------------------------|
A|----33----33-55-33----33----|
E|-33----33----------33-------|

G|----------------------------|
D|----------------------------|
A|----33----33-55-33----33----|
E|-33----33----------33-------|

Chorus
G|------------------------------------------------|
D|--------2----------------------2----------------|
A|---23555-5335/3p2p0-333---23555-5335/3p2p0-333--|
E|-33----------------3----33----------------3-----|

Interlude
G|------------------------------------------------|
D|------------------------------------------------|
A|---323---323-53232--3---323---323-53232--3------|
E|-33----33---------53--33----33---------53-------|

G|------------------------------------------------|
D|------------------------------------------------|
A|---323---323-53232--3---323---323-53232---------|
E|-33----33---------53--33----33---------53///8---|

Chorus
G|------------------------------------------------|
D|--------2----------------------2----------------|
A|---23555-5335/3p2p0-333---23555-5335/3p2p0-333--|
E|-33----------------3----33----------------3-----|

Bridge
G|----------------------------------------------------------|
D|----------------------------------------------------------|
A|--------5-555--------5-555--------5-555-3333333333333333--|
E|-33-333-------33-333-------33-333-------------------------|

Verse3
G|--------------------------------------------------|
D|--------------------------------------------------|
A|----55----55-77-55----55----55----55-77-55----55--|
E|-55----55----------55----55----55----------55-----|

G|--------------------------------------------------|
D|--------------------------------------------------|
A|----55----55-77-55----55----55----55-77-55----55--|
E|-55----55----------55----55----55----------55-----|

Chorus
G|------------------------------------------------|
D|--------2----------------------2----------------|
A|---23555-5335/3p2p0-333---23555-5335/3p2p0-333--|
E|-33----------------3----33----------------3-----|

G|------------------------------------------------|
D|--------2----------------------2----------------|
A|---23555-5335/3p2p0-333---23555-5335/3p2p0-333--|
E|-33----------------3----33----------------3-----|

Break while in guitar & vocal chorus

G|------------------------------------------------|
D|--------2----------------------2----------------|
A|---23555-5335/3p2p0-333---23555-5335/3p2p0-333--|
E|-33----------------3----33----------------3-----|

G|------------------------------------------------|
D|--------2----------------------2----------------|
A|---23555-5335/3p2p0-333---23555-5335/3p2p0-333--|
E|-33----------------3----33----------------3-----|

Rest for a bit then end with......

G|-------------------|
D|-------------------|
A|-------------------|
E|-3-3-3-3-----3333--|

there we go i'm pretty sure its right. Anyway have fun. Any comments please E-mail me at
cheers.