59 Times The Pain - Weakened Revolution Text Guitar Tab

Learn the song with the online tablature player
If you want to play it as 59 does, then play in flat
and move up what I've written by a fret.

     A
(once)
A--66666666------2-4--66666666------4-2--
E-----------2222---------------2222------

     B
(once)
A-----------------------------------------------------
E--4h6-66-6-6-6--4h6-66-6-6-6--4h6-66-6-6-6--66---66--

     C
(once)
A---------------------------------------
E--22222222-22222222-22222222-22222222--

     D
(once)
A--22222222-22222222--44444444-4444h6-6--
E----------------------------------------

     C
(once)

     E
(once)
A--22222222-22222222--44444444-44444444--
E----------------------------------------

     A
(once)

     B
(once)

     C
(once)

     D
(once)

     C
(once)

     E
(twice)

     F
(once)
A------------------------------------
E--66--66--66--66--66--66--66-66--6--

     G
(once)
A---------------------------------------
E--66666666-66666666-66666666-66666666--

     A
(6 times)

     B
(once)
A-------------------------------------------------------------
E--4h6-66-6-6-6--4h6-66-6-6-6--4h6-66-6-6-6--4h6-66-6-6-6--2--