7 Seconds - Heavy Metal Jocks Text Guitar Tab

Learn the song with the online tablature player
G--------------------------|
D----22--------------------|
A-22----6666---------------|
E------------44-444-44-444-|

G--------------------------|
D----22------66-666-66-666-|
A-22----6666---------------|
E--------------------------|

G--------------------------------|
D--------------------------------|
A-2-4-444---------2-4-444-55-555-|
E---------2-4-444----------------|

finish:
G---
D---
A-2-
E---

thats all...
listen to the song to find the order..
and send me your corrections if you find mistakes..
  xxSID