7 Seconds - Heres Your Warning Text Guitar Tab

Learn the song with the online tablature player
e------------------------------------|
B------------------------------------|
G------------------------------------|
D-----------2-2-6--------------2-2-6-|
A-6-6-6-6-6-2-2-4-6--6-6-6-6-6-2-2-4-|
E-4-4-4-4-4-------4--4-4-4-4-4-------|

Verse

e------------------------------------------|
B------------------------------------------|
G------------------------------------------|
D-----7-7-11-11-9-9-----7-7-11-11----------|
A-9-9-5-5-9--9--7-7-9-9-5-5-9--9-11-11-----|    x2
E-7-7---------------7-7----------9--9------|

*Chorus
*Verse
*Chorus

Bridge

e----------------------------------------------|
B----------------------------------------------|
G----------------------------------------------|
D-2-2-2-2-2-----------7-7-7-7-7-9-9-9-9-9------|     x4
A-2-2-2-2-2-4-4-4-4-4-5-5-5-5-5-7-7-7-7-7------|
E-----------2-2-2-2-2--------------------------|