7 Seconds - Regress No Way Text Guitar Tab

Learn the song with the online tablature player
                         REGRESS NO WAY - 7 Seconds

Verse
e|--------------------------------------------------------------------|
B|--------------------------------------------------------------------|
G|-5-5-5-5-5-----8----------------------------------------------------|
D|-5-5-5-5-5--5--8----------------------------------------------------|
A|-3-3-3-3-3--5--6----------------------------------------------------|
E|------------3-------------------------------------------------------|

Chorus
e|--------------------------------------------------------------------|
B|--------------------------------------------------------------------|
G|----------10-10--9-9---------5-5------------------------------------|
D|-5-5-5-5--10-10--9-9--10-10--5-5--10-10-10-10-----------------------|
A|-5-5-5-5---8--8--7-7--10-10--3-3--10-10-10-10-----------------------|
E|-3-3-3-3---------------8--8--------8--8--8--8-----------------------|