88 Fingers Louie - Newspaper Text Guitar Tab

Learn the song with the online tablature player
88 Fingers Louie
Newspaper
Bass

Intro
G|------------------------------------------|
D|------------------------------------------|
A|-2--2-2--0--------------------------------|
E|------------4-4-4--5--3-3-3--5--2-2-2--5--|

Verse
G|------------------------------------------|
D|------------------------------------------|
A|-7--7-7--5---7--7-7--5-------------5-5-5--|
E|------------------------3--3-3--5---------|

G|------------------------------------------|
D|------------------------------------------|
A|-3--3-3--3---------5-5---7--7-7-7---------|
E|------------3-3-3-------------------------|