98 Mute - Another Boring Day Text Guitar Tab

Learn the song with the online tablature player
98 Mute - Another Boring Day

Intro
G|---------------------------------------------------------------------------|
D|---------------------------------------------------------------------------|
A|-9-------------------------------------------------------------------------|
E|---9-7---------------------------------------------------------------------|

Verse/Chorus
G|---------------------------------------------------------------------------|
D|---------------------------------------------------------------------------|
A|----7>----9----------------------------------------------------------------|
E|-4>----7>-----7-7----------------------------------------------------------|

On the chorus, listen for the chord changes by going with the voice.