98 Mute - Picture This Text Guitar Tab

Learn the song with the online tablature player
98 MUTE -  Picture this

        verse
G|-----|--------------------------------------------------------------------|
D|-----|--------------------------------------------------------------------|
A|-0---|-0-0-8-8-5-5-----0-0-8-8-5-5------0-0-8-8-5-5------0-0-8-8-11-11-11-|
E|-----|-------------3-3--------------3-3-------------3-3-------------------|

G|------------------------------------------------------------------|
D|------------------------------------------------------------------|
A|-0-0-8-8-5-5-----0-0-8-8-5-5-----0-0-8-8-5-5-----0-0-8-8-11-11-11-|
E|-------------3-3-------------3-3-------------3-3------------------|

chorus
G|--------------------------------------------------------------------|
D|--------------------------------------------------------------------|
A|-8-8-8-8-5-5-5-5-0-0-0-0-0-0-0-0/--8-8-8-8-5-5-5-5-0-0-0-0-0-0-0-0/-|
E|--------------------------------------------------------------------|

G|-------------------------------------------------------------------|
D|-------------------------------------------------------------------|
A|-8-8-8-8-5-5-5-5-11-11-11-11---------8-8-8-8-5-5-5-5-0-0-0-0----0/-|
E|-----------------------------8-8-8-8-------------------------------|

bridge
G|------------------------------------------------------------------|
D|------------------------------------------------------------------|
A|-0-0-8-8-5-5-----0-0-8-8-5-5-----0-0-8-8-5-5-----0-0-8-8-11-11-11-|
E|-------------3-3-------------3-3-------------3-3------------------|

form:

verse
chorus
verse
chorus
bridge x4
chorus

altern.verse
---------------------------|
A|--0-0-8-8-5-5-11-11-11---|

that's all folks!!!!
'S O H' bert