999 - Titanic Reaction Live Text Guitar Tab

Learn the song with the online tablature player
G|------------------|  x2
D|---------3345-----|
A|-----5-5----------|
E|-3-3--------------|

G|---------3345-----|  x2
D|-----5-5----------|
A|-3-3--------------|
E|------------------|

G|---------5567-----|  x2
D|-----7-7----------|
A|-5-5--------------|
E|------------------|

G|---------7789-----|  x2
D|-----9-9----------|
A|-7-7--------------|
E|------------------|