A Day To Remember - Have Faith In Me Text Bass Tab

Learn the song with the online tablature player
Have Faith in Me
by A Day to Remember



Intro
G|-------------------------------------------------------------------------|
D|-------------------------------------------------------------------------|
A|00-------------00--------------00-------------00-------------------------|
C|---00-55-22-55----x00-55-22-55----00-55-22-55----x00-55-22-55------------|

Verse
G|------------------------------------------|
D|------------------------------------------|
A|00-------------00-------------------------|
C|---00-55-22-55----x00-55-2222-5555--------|

Chorus
G|-------------------------------------------------------------------------|
D|-------------------------------------------------------------------------|
A|-------------------------------------------------------------------------|
C|9999999999999999-0000000000000000-5555555555555555-7777777777777777------|

Verse
G|------------------------------------------|
D|------------------------------------------| X 2
A|00000000----------------------------------|
C|---------00000000-55555555-2222-5555------|

G|------------------------------------------|
D|------------------------------------------|
A|00-------------00-------------------------|
C|---00-55-22-55----x00-55-22-55------------|

Chorus
G|--------------------------------------------------------------------|
D|--------------------------------------------------------------------| X 2
A|--------------------------------------------------------------------|
C|9999999999999999-0000000000000000-5555555555555555-7777777777777777-|

Bridge
G|------------------------------------|
D|------------------------------------| X 3
A|------------------------------------|
C|555-x555-99-9999-777-x77-22-4444----|

G|------------------------------------|
D|------------------------------------|
A|------------------------------------|
C|555-x555-55-5555-777-x77-77-7777----|

G|------------------------------------|
D|------------------------------------|
A|00-------------00-------------------|
C|---00-55-22-55----x00-55------------|

Chorus
G|--------------------------------------------------------------------|
D|--------------------------------------------------------------------| X 2
A|--------------------------------------------------------------------|
C|9999999999999999-0000000000000000-5555555555555555-7777777777777777-|

G|---------------------------------------|
D|---------------------------------------| X 2
A|------------------00000000-------------|
C|55555555-22222222----------77777777----|

Did most of this looking at guitar tabs and by ear.  Hope this helps.