A Day To Remember - Have Faith In Me Text Guitar Tab

Learn the song with the online tablature player
Hey guys! I was asked to tab this so I did!!!

This is my fouth ADTR song ive tabbed including Homesick, I'm made Of Wax and NJ Legion
Tea ver 2. Check em out!!! They have so far been recieved well and I appreciate all the comments!

I hope you enjoy it!

Off their new album Homesick!

Key
(10)10’s Not 1’s, there are not 1’s in the song.
(X) Mutes.
(.) Palm Mutes.
(~) Hold Note.

Intro
0:00)

D:-------------------------------------|
A:---10---10---10---10---8---8---7---7-|
F:-7----7----7----7----7---7---7---7---| (x8)
C:-------------------------------------|
G:-------------------------------------|
C:-------------------------------------|

Verse 1
0:32)

D:-----------------------------------------------|
A:-----------------------------------------------|
F:-----------------------------------------------|
C:-99---00---55---22-55-99----00—-55---2222-5555-|
G:-99---00---55---22-55-99----00—-55---2222-5555-|
C:-99---00---55---22-55-99----00—-55---2222-5555-|
/:-..---..---..---..-..-..----..--..---....------|

Chorus 1
0:45)

D:---------------------------------------------------------------------|
A:---------------------------------------------------------------------|
F:---------------------------------------------------------------------|
C:-9999999999999999-0000000000000000-5555555555555555-7777777777777777-|
G:-9999999999999999-0000000000000000-5555555555555555-7777777777777777-|
C:-9999999999999999-0000000000000000-5555555555555555-7777777777777777-|

Verse 2
0:58) (listen carefully to the strumming pattern)

D:--------------------------------|
A:--------------------------------|
F:--------------------------------|
C:-99999999|00000|5555555|2222|55-|
G:-99999999|00000|5555555|2222|55-|
C:-99999999|00000|5555555|2222|55-|
/:-..-.--.-|..---|..-.--.|..-.|---|

(1:10)

D:-----------------------------------------------|
A:-----------------------------------------------|
F:-----------------------------------------------|
C:-99---00---55---22-55-99----00—-55---2222-5555-|
G:-99---00---55---22-55-99----00—-55---2222-5555-|
C:-99---00---55---22-55-99----00—-55---2222-5555-|
/:-..---..---..---..-..-..----..--..---....------|

Chorus 2
1:23)

D:---------------------------------------------------------------------|
A:---------------------------------------------------------------------|
F:---------------------------------------------------------------------|
C:-9999999999999999-0000000000000000-5555555555555555-7777777777777777-| (x2)
G:-9999999999999999-0000000000000000-5555555555555555-7777777777777777-|
C:-9999999999999999-0000000000000000-5555555555555555-7777777777777777-|

Breakdown
1:49)

D:--------------------------------------|
A:--------------------------------------|
F:--------------------------------------|
C:-555-x555--99-9999—-777-x777—-22-4444-| (x3)
G:-555-x555--99-9999—-777-x777—-22-4444-|
C:-555-x555—-99-9999—-777-x777—-22-4444-|

(2:08)

D:--------------------------------------|
A:--------------------------------------|
F:--------------------------------------|
C:-555-x555--55-5555—-777-x777—-77-7777-|
G:-555-x555--55-5555—-777-x777—-77-7777-|
C:-555-x555—-55-5555—-777-x777—-77-7777-|

Bridge
2:14)                            (2:24)

D:-------------------------------------|      |-----|
A:---10---10---10---10---8---8---7---7-|      |-----|
F:-7----7----7----7----7---7---7---7---| (x3) |-----|
C:-------------------------------------|      |-55~-|
G:-------------------------------------|      |-55~-|
C:-------------------------------------|      |-55~-|

Chorus 3
2:27)

D:---------------------------------------------------------------------|
A:---------------------------------------------------------------------|
F:---------------------------------------------------------------------|
C:-9999999999999999-0000000000000000-5555555555555555-7777777777777777-| (x2)
G:-9999999999999999-0000000000000000-5555555555555555-7777777777777777-|
C:-9999999999999999-0000000000000000-5555555555555555-7777777777777777-|

Outro
2:52)

D:-------------------------------------------------------------------|
A:-------------------------------------------------------------------|
F:-------------------------------------------------------------------|
C:-55555555-22222222-99999999-00000000-55555555-22222222-99999999-00-|
G:-55555555-22222222-99999999-00000000-55555555-22222222-99999999-00-|
C:-55555555-22222222-99999999-00000000-55555555-22222222-99999999-00-|
/:-........-........-........-........-........-........-........_..-|

If there are any problems or if you have any corrections do
not hesitate to contact me. Comment & RATE!!! :)

Enjoy!!! :D