A Day To Remember - Homesick Text Bass Tab

Learn the song with the online tablature player
                             Homesick - A Day to Remember

F|---------------------------------------------|
C|---------------------------------------------|
G|--0-----0-------------------------3~---------|
C|----00-0-00-0-----0~-------3~--------5~--6~--|

F|---------------------------------------------|
C|---------------------------------------------|
G|--------------------------0-0-000-3-3333333--|
C|--3-3-333-5~-5555555-------------------------|

F|-----------------------------------------------------|
C|-----------------------------------------------------|
G|-------------------------------0-----0-----0-----0---|
C|--3-3-333-5~-5555555---------------------------------|

F|-----------------------------------------------------|
C|-----------------------------------------------------|
G|--------------------------0-0-000-3-3333333----------|
F|--3-3-333-5~-5555555---------------------------------|

F|-----------------------------------------------------|
C|-----------------------------------------------------|
G|-----------------------------------------------------|
C|-------3~----------------------35~-------------------|

Chorus 1
F|-----------------------------------------------------|
C|-----------------------------------------------------|
G|-3333333333333333------00000000----------------------|
C|-------------------------------------33333333--------|

F|-----------------------------------------------------|
C|-----------------------------------------------------|
G|-3333333333333333------00000000----------------------|
C|-------------------------------------33333333---6~---|

Verse 2
F|-----------------------------------------------------|
C|-----------------------------------------------------|
G|------0~--------------------3~-----------------------|
C|-------------0~------3~--------------5~--6~----------|

F|-----------------------------------------------------|
C|-----------------------------------------------------|
G|--0-----0-------------------------3~-----------------|
C|----00-0-00-0-----0~-------3~--------5~--6~----------|

F|-----------------------------------------------------|
C|-----------------------------------------------------|
G|--------------------------0-0-000-3-3333333----------|
C|--3-3-333-5~-5555555---------------------------------|

F|-----------------------------------------------------|
C|-----------------------------------------------------|
G|-------------------------------0-----0-----0-----0---|
C|--3-3-333-5~-5555555---------------------------------|

F|------------------------------------------------------|
C|------------------------------------------------------|
G|--------------------------0-0-000-3-3333333-----------|
C|--3-3-333-5~-5555555----------------------------------|

F|------------------------------------------------------|
C|------------------------------------------------------|
G|------------------------------------------------------|
C|-------3~----------------------35~--------------------|

Chorus 2
F|------------------------------------------------------|
C|------------------------------------------------------|
G|-3333333333333333-00000000----------------------------|
C|-------------------------------------33333333---------|

F|------------------------------------------------------|
C|------------------------------------------------------|
G|-3333333333333333------00000000-----------------------|
C|-------------------------------------33333333---------|

F|------------------------------------------------------|
C|------------------------------------------------------|
G|---3-3--333--333--333--33333333--00000000-------------|
C|-------------------------------------------33333333---|

F|------------------------------------------------------|
C|------------------------------------------------------|
G|---3-3--333--333--333--33333333--00000000-------------|
C|-------------------------------------------33333333---|

Bridge
F|------------------------------------------------------|
C|------------------------------------------------------|
G|------------------------------------------------------|
C|---3~~-----5~--3~~---5~--7~~--7~--5555555555555-------|

F|------------------------------------------------------|
C|------------------------------------------------------|
G|--------------------------------00000-----------------|
C|----33333---------33333-----------------------55555---|

F|------------------------------------------------------|
C|------------------------------------------------------|
G|--------------------------------00000-----------------|
C|----33333---------33333-----------------------55555---|

F|------------------------------------------------------|
C|------------------------------------------------------|
G|------------------------------------------------------|
C|---3~~------------3-3-3-3-3-3-3-3-3-3-3-3-3-3-3-3-----|

Chorus 3/Ending
F|------------------------------------------------------|
C|------------------------------------------------------|
G|-3333333333333333------00000000-----------------------|
C|-------------------------------------33333333---------|

F|------------------------------------------------------|
C|------------------------------------------------------|
G|-3333333333333333-------00000000----------------------|
C|-------------------------------------33333333---------|

F|------------------------------------------------------|
C|------------------------------------------------------|
G|---3-3--333--333--333--33333333--00000000-------------|
C|-------------------------------------------33333333---|

F|------------------------------------------------------|
C|------------------------------------------------------|
G|---3-3--333--333--333--33333333--00000000-------------|
C|-----------------------------------------------3~-----|

| /  slide up
| \  slide down
| h  hammer-on
| p  pull-off
| ~  vibrato
| +  harmonic
| x  Mute note