A Day To Remember - The Downfall Of Us All Text Bass Tab

Learn the song with the online tablature player
A Day To Remember
Homesick
“The Downfall of Us All”

Drop C: CGCF

INTRO
F|---------------------------------------------------|x2
C|---------------------------------------------------|
G|--------------------------22222222-22-22-----------|
C|00000000-00-00—000-00-00-----------------55-55-55--|

                     |--------|
(2nd time, end with) |--------|
                     |--------|
                     |-55550~-|

VERSE
F|----------------------------------------------|
C|----------------------------------------------|
G|--2~-----------------------2~-----------------|
C|---------5~-------0~---------------5~---------|

PRE-CHORUS
F|-------------------------------------------------------------|
C|-------------------------------------------------------------|
G|------99\------555\--------------------------99\-------------|
C|-99999-----5555-----00000000002222222--99999-----5-55555555--|

CHORUS
F|-------------------------------------|x2
C|-------------------------------------|
G|-------------------------------------|
C|-0000022005500777—000002222/5555555--|

                      |------------|
                      |------------|
(2nd time, end with)  |------------|
                      |-2222222/55-|

INTRO

VERSE 2

F|----------------------------------------------|
C|----------------------------------------------|
G|--2~-----------------------222-222------------|
C|---------5~-----00---000-------------555-555--|

PRE-CHORUS

CHORUS

BRIDGE

F|--------------------------------------------|x2
C|-------54~-------54~--------45~-------545---|
G|--------------------------------------------|
C|-00000------0000------55555------7777-------|

F|--------------------------|
C|--------------------------|
G|--------------------------|
C|-00000-00000-55555-77-777-|

BREAK

CHORUS

OUTRO
F|--------------------------------------------------------|x2
C|--------------------------------------------------------|
G|--------------------------------------------------------|
C|-0000000-00-00-000-00-00---00000000-00-00-00-00-0-00-00-|