A Global Threat - Until We Die Text Guitar Tab

Learn the song with the online tablature player
A GLOBAL THREAT

BAND: A GLOBAL THREAT
SONG: UNTIL WE DIE
TUNNING: STANDARD
(I AM NOT ADDING THE EXACT AMOUNT OF STRUMS)

INTRO
{e}---------------------------------------|
{B}---------------------------------------|
{G}---4-----------------------------------|
{D}-5-4-5---------------------------------|
{A]-5-2-5---------------------------------|
{E}-3---3--/------------------------------|

VERSE
(e)---------------------------------------|
 B ---------------------------------------|
 G -4-4-4--6-7-6--------------------------|
 D -4-4-4--6-7-6--5-5-5-------------------|
 A -2-2-2--4-5-4--5-5-5-------------------|
 E ---------------3-3-3-------------------|

(e)---------------------------------------|
 B ---------------------------------------|
 G ---------------------------------------|
 D -4-4-4---------------------------------|
 A -4-4-4---------------------------------|
 E -2-2-2---------------------------------|

CHORUS
(e)-------------------------------------------|
 B -------------------------------------------|
 G ----------11--12--10--9--11---7-7-7--------|
 D ---9-9-9--11--12--10--9--11---7-7-7-7-7-7--|
 A ---9-9-9--9---10--9---7--9----5-5-5-7-7-7--|
 E ---7-7-7----------------------------5-5-5--|

VERSE
CHORUS

SOLO
(e)-7-7-7-5------6-7--9--10-10-10-10-9-10-10-10-10-9---|
 B -7-7-7--7-7/8---------------------------------------|
 G ----------------------------------------------------| X2
 D ----------------------------------------------------|
 A ----------------------------------------------------|
 E ----------------------------------------------------|

BREAKDOWN
(e)----------------------------------------|
 B ----------------------------------------|
 G ------------11-11-11--12-12-12----------|
 D --12-12-12--11-11-11--12-12-12----------|
 A --12-12-12--9--9--9---10-10-10----------|
 E --10-10-10------------------------------|

VERSE
CHORUS
SOLO

ENDING OF SOLO END LIKE THIS
(e)-7-7-7-7---|
 B -7-7--7-7--|
 G -----------|
 D -----------|
 A -----------|
 E -----------|