A Global Threat - Whats Left Now Text Guitar Tab

Learn the song with the online tablature player
Band: A Global Threat
Song: What's Left Now?
Type: bass

Intro
G-----------------------------------------------
D--------2-4-2-0-2--------2-4-2-0-2—5> -3-2>-5--
A-2-2-2-------------2-2-2-----------------------
E-----------------------------------------------

Verse
G------------------------------------------
D------------------------0000000-2-4-------
A---22222222-3-5-3-------------------------
E------------------------------------------

Course

A----22-2-------77-7----------22-2-------77-7--------
E---------77-7--------33-3----------77-7-------22-2--

Outro
G-----------------------
D------------5>--0>-----
A-----------------------
E--5>---7>--------------

any Qestions or comments to me Jake for the "805"-Nardcore.

Peace out.