A Life Once Lost - Pain And Panic Text Guitar Tab

Learn the song with the online tablature player
INTRO
0:01)

F|-----------------|
C|-----------------|
G|-----------------|
D|-0-0-3-(3)-2-(2)-|

F|---------------------------------------------------------------------------|
C|---------------------------------------------------------------------------|
G|---------------------------------------------------------------------------|
D|-0-2-0-2-0-2-2-0--2-0-2-0-2-2-2----0-2-0-2-0-2-2-0--2-0-2-0-2-2-2----------|

F|-------------------|
C|-------------------|
G|-5-5-5-(5)---------|
D|------------/10\----|

F|---------------------------------------------------------------------------|
C|---------------------------------------------------------------------------|
G|---------------------------------------------------------------------------|
D|-0-2-0-2-0-2-2-0--2-0-2-0-2-2-2----0-2-0-2-0-2-2-0--2-0-2-0-2-2-2----------|

F|-------------------|
C|-------------------|
G|-5-5-5-(5)---------|
D|------------1-0-6~-|

1ST VERSE (0:21)

F|---------------------------------------------------------------------------|
C|---------------------------------------------------------------------------|
G|----------------------5---4~-----------------------------------------------|
D|-0-0-0--0-0-0--0-0-0----4----0-0-0--0-0-0--0-0-0--1-0-6~-------------------|

F|---------------------------------------------------------------------------|
C|---------------------------------------------------------------------------|
G|----------------------5---4~------------3----------------------------------|
D|-0-0-0--0-0-0--0-0-0----4----0-0-0--0-0----0-0-0--1-0-6~---0-0-0-----------|

F|---------------------------------------------------------------------------|
C|---------------------------------------------------------------------------|
G|---------------5---4~------------------------------------------------------|
D|-0-0-0--0-0-0----4----0-0-0--0-0-0--0-0-0--1-0-6~---0-0-0--0-0-0-----------|

F|---------------------------------------------------------------------------|
C|---------------------------------------------------------------------------|
G|--------5---4~------------3------------------------------------------------|
D|-0-0-0----4----0-0-0--0-0----0-0-0-0-0-0-0-1~------------------------------|

CHORUS
0:45) *PLAY 4 TIMES*

F|---------------------------------------------------------------------------|
C|---------------------------------------------------------------------------|
G|---------------------------------------------------------------------------|
D|-0-0--0-0--0-0--0--0-0-0-1~--0-0--0-0-0-1~--0-0-3--2--1~-------------------|

2ND VERSE (1:08)

F|---------------------------------------------------------------------------|
C|---------------------------------------------------------------------------|
G|----------------------5---4~-----------------------------------------------|
D|-0-0-0--0-0-0--0-0-0----4----0-0-0--0-0-0--0-0-0--1-0-6~-------------------|

F|---------------------------------------------------------------------------|
C|---------------------------------------------------------------------------|
G|----------------------5---4~------------3----------------------------------|
D|-0-0-0--0-0-0--0-0-0----4----0-0-0--0-0----0-0-0--1-0-6~---0-0-0-----------|

F|---------------------------------------------------------------------------|
C|---------------------------------------------------------------------------|
G|---------------5---4~------------------------------------------------------|
D|-0-0-0--0-0-0----4----0-0-0--0-0-0--0-0-0--1-0-6~---0-0-0--0-0-0-----------|

F|---------------------------------------------------------------------------|
C|---------------------------------------------------------------------------|
G|--------5---4~------------3------------------------------------------------|
D|-0-0-0----4----0-0-0--0-0----0-0-0-0-0-0-0-1~------------------------------|

CHORUS
1:31)

F|---------------------------------------------------------------------------|
C|---------------------------------------------------------------------------|
G|---------------------------------------------------------------------------|
D|-0-0--0-0--0-0--0--0-0-0-1~--0-0--0-0-0-1~--0-0-3--2--1~-------------------|

F|---------------------------------------------------------------------------|
C|---------------------------------------------------------------------------|
G|---------------------------------------------------------------------------|
D|-0-0--0-0--0-0--0--0-0-0-1~--0-0--0-0-0-1~--0-0-3--2--1~-------------------|

F|---------------------------------------------------------------------------|
C|---------------------------------------------------------------------------|
G|---------------------------------------------------------------------------|
D|-0-0--0-0--0-0--0--0-0-0-1~--0-0--0-0-0-1~--0-0-3--2--1~-------------------|

F|---------------------------------------------------------------------------|
C|---------------------------------------------------------------------------|
G|---------------------------------------------------------------------------|
D|-0-0--0-0--0-0--0--0-0-0-1~--0-0--0-0-0-1~--0-0-3--2-(2)-------------------|

3RD VERSE (1:54)

F|---------------------------------------------------------------------------|
C|---------------------------------------------------------------------------|
G|---------------------------------------------------------------------------|
D|-0-2-0-2-0-2-2-0--2-0-2-0-2-2-2----0-2-0-2-0-2-2-0--2-0-2-0-2-2-2----------|

F|----------------|
C|----------------|
G|-5-5-5-(5)------|
D|------------/10\-|

F|---------------------------------------------------------------------------|
C|---------------------------------------------------------------------------|
G|---------------------------------------------------------------------------|
D|-0-2-0-2-0-2-2-0--2-0-2-0-2-2-2----0-2-0-2-0-2-2-0--2-0-2-0-2-2-2----------|

F|----------------|
C|----------------|
G|-5-5-5-(5)------|
D|------------10\-|

GUITAR SOLO
2:12)

F|---------------------------------------------------------------------------|
C|---------------------------------------------------------------------------|
G|---------------------------------------------------5-5-5-(5)---------------|
D|-0--2-2-2--0-2----0-2-2----0--2-2-2--0-2----5-2-0-------------10\----------|

F|---------------------------------------------------------------------------|
C|---------------------------------------------------------------------------|
G|---------------------------------------------------5-5-5-(5)--5-5-5-5------|
D|-0--2-2-2--0-2----0-2-2----0--2-2-2--0-2----5-2-0--------------------------|

F|---------------------------------------------------------------------------|
C|---------------------------------------------------------------------------|
G|-7-7-(7)-X-/10-10-10-10----------------------------------------------------|
D|---------------------------------------------------------------------------|

BREAKDOWN
2:32)

F|---------------------------------------------------------------------------|
C|------------------5------------------------------5-------------------------|
G|---------------------------------------------------------------------------|
D|-0-2~--0-2~--0-2~----0-2~--0-2~--5----0-2~--0-2~----0h2p0-----------------|

F|---------------------------------------------------------------------------|
C|------------------5------------------------------5-------------------------|
G|---------------------------------------------------------------------------|
D|-0-2~--0-2~--0-2~----0-2~--0-2~--5----0-2~--0-2~----0h2p0-----------------|

F|---------------------------------------------------------------------------|
C|------------------5------------------------------5-------------------------|
G|---------------------------------------------------------------------------|
D|-0-2~--0-2~--0-2~----0-2~--0-2~--5----0-2~--0-2~----0h2p0-----------------|

F|---------------------------------------------------------------------------|
C|------------------5------------------------------5-------------------------|
G|---------------------------------------------------------------------------|
D|-0-2~--0-2~--0-2~----0-2~--0-2~--5----0-2~--0-2~----0h2p0-0-0-0-(0)--------|

CHORUS
2:58)

F|---------------------------------------------------------------------------|
C|---------------------------------------------------------------------------|
G|---------------------------------------------------------------------------|
D|-1~-0-0--0-0--0-0--0--0-0-0-1~--0-0--0-0-0-1~--0-0-3--2--1~----------------|

F|---------------------------------------------------------------------------|
C|---------------------------------------------------------------------------|
G|---------------------------------------------------------------------------|
D|-0-0--0-0--0-0--0--0-0-0-1~--0-0--0-0-0-1~--0-0-3--2--1~-------------------|

F|---------------------------------------------------------------------------|
C|---------------------------------------------------------------------------|
G|---------------------------------------------------------------------------|
D|-0-0--0-0--0-0--0--0-0-0-1~--0-0--0-0-0-1~--0-0-3--2--1~-------------------|

F|---------------------------------------------------------------------------|
C|---------------------------------------------------------------------------|
G|---------------------------------------------------------------------------|
D|-0-0--0-0--0-0--0--0-0-0-1~--0-0--0-0-0-1~--0-0-3--2--1-(1)--1-1----------|

| /  slide up
| \  slide down
| h  hammer-on
| p  pull-off
| ~  vibrato
| +  harmonic
| x  Mute note