A Perfect Circle - 3 Libras Text Bass Tab

Learn the song with the online tablature player
A Perfect Circle - 3 Libras

Legend

p - pull off
\\ - slide down
// - slide up
~~ - vibrato

Intro

No Bass

Verse 1

Play 3X
E--------------------------------------------|
B--------------------------------------------|
F#-------------------------------------------|
C#-8--8-8-8\3--3-3-3-3/10--10-10-10\6--6-6-6-|

E--------------------------------------------------------|
B--------------------------------------------------------|
F#-------------------------------------------------------|
C#-8--8-8-8\3--3-3-3-3/10--10-10-10\6--6-6-6\12-12-12-12-|

Chorus

E--------------------------------------------|
B--------------------------------------------|
F#-3--3333-3--3333-3--3333-3/5-5555-5/7-7777-|
C#-------------------------------------------|

E-----------------------------|
B-----------------------------|
F#-7--7777---7777--7--7777-/--|
C#---------0------------------|

E--------------------------------------------|
B--------------------------------------------|
F#-3--3333-3--3333-3--3333-3/5-5555-5/7-7777-|
C#-------------------------------------------|

E------------------------|
B------------------------|
F#-7--7777--8--8888-8-/--|
C#-----------------------|

E---------|
B---------|
F#--------|
C#-1-Hold-|

Verse 2

Play 3X
E--------------------------------------------|
B--------------------------------------------|
F#-------------------------------------------|
C#-8--8-8-8\3--3-3-3-3/10--10-10-10\6--6-6-6-|

E--------------------------------------------------------|
B--------------------------------------------------------|
F#-------------------------------------------------------|
C#-8--8-8-8\3--3-3-3-3/10--10-10-10\6--6-6-6\12-12-12-12-|

Chorus 2

E--------------------------------------------|
B--------------------------------------------|
F#-3--3333-3--3333-3--3333-3/5-5555-5/7-7777-|
C#-------------------------------------------|

E-----------------------------|
B-----------------------------|
F#-7--7777---7777--7--7777-/--|
C#---------0------------------|

E--------------------------------------------|
B--------------------------------------------|
F#-3--3333-3--3333-3--3333-3/5-5555-5/7-7777-|
C#-------------------------------------------|

E------------------------|
B------------------------|
F#-7--7777--8--8888-8-/--|
C#-----------------------|

Bridge

Play 3X
E--------------------------------|
B--------------------------------|
F#----------------6-6666---------|
C#-3-3333-3-333----------4-4444--|

E--------------------------------|
B--------------------------------|
F#----------------6-6666---------|
C#-3-3333-3-333----------4---8---|

Interlude

E-----------------------|
B-----------------------|
F#----------------------|
C#-12-/-8----3--12-/--8-|

E----------------------------------------------------|
B----------------------------------------------------|
F#---------------------------------------------------|
C#-8-8-8-8-8-/-12-12-\-8-8-8-8-\--15-15-\-12-12-\-13-|

E--------------------------------------|
B--------------------------------------|
F#-------------------------------------|
C#-13--13--13--13--13-13--13--13-13-13-|

Ending Chorus:

E--------------------------------------------|
B--------------------------------------------|
F#-3--3333-3--3333-3--3333-3/5-5555-5/7-7777-|
C#-------------------------------------------|

E-----------------------------|
B-----------------------------|
F#-7--7777---7777--7--7777-/--|
C#---------0------------------|

E--------------------------------------------|
B--------------------------------------------|
F#-3--3333-3--3333-3--3333-3/5-5555-5/7-7777-|
C#-------------------------------------------|

E-----------------------------|
B-----------------------------|
F#-7--7777---7777--7--7777-/--|
C#---------0------------------|

E--------------------------------------------|
B--------------------------------------------|
F#-3--3333-3--3333-3--3333-3/5-5555-5/7-7777-|
C#-------------------------------------------|

E-----------------------------|
B-----------------------------|
F#-7--7777---7777--7--7777-/--|
C#---------0------------------|

E--------------------------------------------|
B--------------------------------------------|
F#-3--3333-3--3333-3--3333-3/5-5555-5/7-7777-|
C#-------------------------------------------|

E------------------------|
B------------------------|
F#-7--7777---8-8-8-------|
C#-------------------1---|

Les Pauls and ivory bathrooms. Good times.
-E-mail me