A Static Lullaby - The Shooting Star That Destroyed Us All Text Guitar Tab

Learn the song with the online tablature player
this is not all the parts but all the way through the song, if there were power chords
behind octaves i tabbed the octaves

Intro pt. 1
e |----------------------|
B |----------------------|
G |----5----2----10----10|
D |3--3----0----7-----8--| x8 each
A |3---------------------| x2 all
D |3---------------------|
pm clean the first time then pm distortion except the first chord

intro pt. 2
e |---------------------------------------------------------------|
B |---------------------------------------------------------------|
G |---------------------------------------------------------------|
D |333-333-333-333-000-000-000-000-777-777-777-777-888-888-888-888|
A |333-333-333-333-000-000-000-000-777-777-777-777-888-888-888-888|
D |333-333-333-333-000-000-000-000-777-777-777-777-888-888-888-888|
PM     ..  ..  ..  ..  ..  ..  ..  ..  ..  ..  ..  ..  ..  ..  ..

Chorus
e |---------------|
B |---------------|
G |---------------|
D |--3---0---7---8| x15 each me thinks
A |--3---0---7---8| play twice per chorus
D |--3---0---7---8|
some people think he plays more stuff but thats just bass

"I wanted to break the fall.." and that other riff:
e |------------------|------------------------------------|
B |------------------|------------------------------------|
G |9-7~-10/12-10-9-3-|-7-7-7------------------------------|
D |x-x~--x/-x--x-x-x-|-------8-8-8-7-7-7-10-10-10-10-10-10| x4 each;
A |7-5~--8/10--8-7-1-|------------------------------------| second riff
D |------------------|------------------------------------| pm first 2
                    PM ...................................  then release

Play a chorus.

Bass riff, then:

"Nows the time [...] The more i try the more i lose..":
e |----10~-10----------------------|
B |--9------9----------------------|
G |7--------7---------5-------7-7-7|
D |-----------0-2h3p2-5-2h3p2-7-7-7|
A |-----------0-2h3p2-3-2h3p2-5-5-5|
D |-----------0-2h3p2---2h3p2------|

Your eyes, they shine, your eyes...:
e |------------|
B |------------|
G |------------|
D |0~--2~--3~--|
A |0~--2~--3~--|
D |0~--2~--3~--|

YOUR EYES THEY SHINE, YOUR EYES:
e |----------------------------|
B |----------------------------|
G |9--10--9--10--14--10--14--16|
D |x---x--x---x---x---x---x---x| each octave 15 times i think
A |7---8--7---8--12---8--12--14|
D |----------------------------|

Your eyes, they shine, your eyes...:
e |------------|
B |------------|
G |------------|
D |0~--2~--3~--|
A |0~--2~--3~--|
D |0~--2~--3~--|

"Walking home, street lights go out":
e |-------------------------------|
B |-------------------------------|
G |7--9--10---7--9--10------------|
D |x--x---x---x--x---x-3-2-0-2-3-2| x2
A |5--7---8---5--7---8-3-2-0-2-3-2|
D |--------------------3-2-0-2-3-2|
PM                     . . . . . .

play intro pt. 1

chorus then

Outro
e |-----------------------------------------------|
B |------------------------------10-11-11p10h11p10|
G |9-10-9-10-9-10-9-10-9-10-9-10------------------| last notes x8
D |-----------------------------------------------| play this riff x2
A |-----------------------------------------------| listen close
D |-----------------------------------------------| for that last hammer
                                                    and pull part

fun:
e |--------------------|
B |----------11-10-8---|
G |9-10-9-10---------10|
D |--------------------| x4
A |--------------------|
D |--------------------|

then do

G |9-10| over and over again till

e |--|
B |--|
G |--|
D |33|
A |33|
D |33|

Fin