A Tribe Called Quest - Buggin Out Text Guitar Tab

Learn the song with the online tablature player
Artist: A Tribe Called Quest
Song Title: Buggin' Out
Album: The Low End Theory
Release Date: 9/24/1991

4-String Bass

G|-------------|
D|-------------|
A|-----3-5-----|
E|-1-0-----6-6-|

5-String Bass

G|-------------|
D|-------------|
A|-----3-5-----|
E|-1-0-----6-6-|
B|-------------|

THIS IS THE REAL BASS LINE!!!!!!!

Tab By: Doritoz a.k.a DJ Mastermind