Abandoned Pools - Seed Text Guitar Tab

Learn the song with the online tablature player
e(----------------------)(--12-repeated-)
b(----------------------)(--------------)
g(------44-45-----44-43-)(--------------)
d(--2-2-44-45-2-2-44-43-)(--------------)
a(--2-2-22-23-2-2-22-21-)(--------------)
D

e(--------------------------)(--12-11-repeated-)
b(--------------------------)(-----------------)
g(--------------------------)(-----------------)
d(--------------------------)(-----------------)
a(----2-2-33-22---2-2-33-21-)(-----------------)
D

e(---------------------------)
b(--5-7-8-10-12--2-0---------)
g(-------------------2-------)
d(---------------------2-----)
a(-----------------------4-0-)
D