Abandoned Pools - Start Over Text Guitar Tab

Learn the song with the online tablature player
(Intro & verse)
G- ----------------------------------|
D- ----------------------------------|
A- ------------------5-5-5-5-5-5-5-5-|
E- 7-7-7-7--5-5-5-5------------------|

(Chorus) X4
G- ------------------------------------------|
D- ------------------------------------------|
A- ------------------------------------------|
E- 7-7-7-7--9-9-9-9--10-10-10-10-10-10-10-10-|
                     ^^(Those are tens!)^^^^

 Ending  X4 (When they say "It's over")
G- -----------------------------------|
D- -----------------------------------|
A- ------------------5-5-5-5--5-5-5-5-|
E- 2-2-2-2--4-4-4-4-------------------|