Abandoned Pools - The Remedy Acoustic Text Guitar Tab

Learn the song with the online tablature player
Band - Abandoned Pools
Song - The Remedy (acoustic)

Intro
e|--0-----3----3-----|
B|--0-----3----3-----|
G|--1-----0----0-----|
D|--2-----2----2-----| x2
A|--2-----3----0-----|
E|--0-----0----0-----|

Verse
e|--0-----3----3-----|
B|--0-----3----3-----|
G|--1-----0----0-----|
D|--2-----2----2-----| x4
A|--2-----3----0-----|
E|--0-----0----0-----|

Prechorus
e|--3-------------3-----------3-----3-----------2-|
B|--3-------------3-----------3-----3-----------3-|
G|--0-------------0-----------0-----4-----------2-|
D|--2-------------2-----------0-----5-------------|
A|--3-------------0-----------2-----5-------------|
E|--0-------------0-----------3-----3-------------|

e|--3-------------3-----------3-----3-----------2-|
B|--3-------------3-----------3-----3-----------3-|
G|--0-------------0-----------0-----4-----------4-|
D|--2-------------2-----------0-----5-----------4-|
A|--3-------------0-----------2-----5-----------2-|
E|--0-------------0-----------3-----3-----------2-|

Chorus
e|--0-------------------3---------3-|    |-----|
B|--0-------------------3---------3-|    |-----|
G|--1-----11\----7------0---------0-|    |-----|
D|--2-----11\----7------2---------2-| x4 |--0--|
A|--2------9\----5------3---------0-|    |--2--|
E|--0-------------------0---------0-|    |--2--|

Verse
e|--0-----3----3-----|
B|--0-----3----3-----|
G|--1-----0----0-----|
D|--2-----2----2-----| x4
A|--2-----3----0-----|
E|--0-----0----0-----|

Chorus
e|--0-------------------3---------3-|    |-----|
B|--0-------------------3---------3-|    |-----|
G|--1-----11\----7------0---------0-|    |-----|
D|--2-----11\----7------2---------2-| x4 |--0--|
A|--2------9\----5------3---------0-|    |--2--|
E|--0-------------------0---------0-|    |--2--|

Bridge
e|-------0-|
B|-------0-|
G|-------1-|
D|--0----2-| x2
A|--2----2-|
E|--2----0-|

Prechorus
e|--3-------------3-----------3-----3-----------2-|
B|--3-------------3-----------3-----3-----------3-|
G|--0-------------0-----------0-----4-----------2-|
D|--2-------------2-----------0-----5-------------|
A|--3-------------0-----------2-----5-------------|
E|--0-------------0-----------3-----3-------------|

e|--3-------------3-----------3-----3-----------2-|
B|--3-------------3-----------3-----3-----------3-|
G|--0-------------0-----------0-----4-----------4-|
D|--2-------------2-----------0-----5-----------4-|
A|--3-------------0-----------2-----5-----------2-|
E|--0-------------0-----------3-----3-----------2-|

Chorus
e|--0-------------------3---------3-|    |-----|
B|--0-------------------3---------3-|    |-----|
G|--1-----11\----7------0---------0-|    |-----|
D|--2-----11\----7------2---------2-| x4 |--0--|
A|--2------9\----5------3---------0-|    |--2--|
E|--0-------------------0---------0-|    |--2--|